ISO-10303-21;
HEADER;
/* Generated by software containing ST-Developer
 * from STEP Tools, Inc. (www.steptools.com) 
 */

FILE_DESCRIPTION(
/* description */ (''),
/* implementation_level */ '2;1');

FILE_NAME(
/* name */ 
'D:\\$Workingspace\\Designs\\Katalog\\Cadsoft\\Akcesoria\\AM-ODB000-60
\\AM-ODB000-60.stp',
/* time_stamp */ '2019-11-18T14:57:35+01:00',
/* author */ ('tomaszw'),
/* organization */ (''),
/* preprocessor_version */ 'ST-DEVELOPER v17.2',
/* originating_system */ 'Autodesk Inventor 2019',
/* authorisation */ '');

FILE_SCHEMA (('AUTOMOTIVE_DESIGN { 1 0 10303 214 3 1 1 }'));
ENDSEC;

DATA;
#10=MECHANICAL_DESIGN_GEOMETRIC_PRESENTATION_REPRESENTATION('',(#13),#238);
#11=SHAPE_REPRESENTATION_RELATIONSHIP('SRR','None',#245,#12);
#12=ADVANCED_BREP_SHAPE_REPRESENTATION('',(#14),#237);
#13=STYLED_ITEM('',(#254),#14);
#14=MANIFOLD_SOLID_BREP('@AM-ODB000-60',#121);
#15=FACE_BOUND('',#45,.T.);
#16=FACE_BOUND('',#47,.T.);
#17=FACE_BOUND('',#50,.T.);
#18=LINE('',#217,#21);
#19=LINE('',#228,#22);
#20=LINE('',#233,#23);
#21=VECTOR('',#178,3.1);
#22=VECTOR('',#193,6.);
#23=VECTOR('',#200,5.);
#24=CYLINDRICAL_SURFACE('',#147,3.1);
#25=CYLINDRICAL_SURFACE('',#154,6.);
#26=CYLINDRICAL_SURFACE('',#157,5.);
#27=PLANE('',#146);
#28=PLANE('',#150);
#29=PLANE('',#151);
#30=PLANE('',#156);
#31=PLANE('',#159);
#32=FACE_OUTER_BOUND('',#41,.T.);
#33=FACE_OUTER_BOUND('',#42,.T.);
#34=FACE_OUTER_BOUND('',#43,.T.);
#35=FACE_OUTER_BOUND('',#44,.T.);
#36=FACE_OUTER_BOUND('',#46,.T.);
#37=FACE_OUTER_BOUND('',#48,.T.);
#38=FACE_OUTER_BOUND('',#49,.T.);
#39=FACE_OUTER_BOUND('',#51,.T.);
#40=FACE_OUTER_BOUND('',#52,.T.);
#41=EDGE_LOOP('',(#85,#86,#87,#88,#89));
#42=EDGE_LOOP('',(#90));
#43=EDGE_LOOP('',(#91,#92,#93,#94));
#44=EDGE_LOOP('',(#95));
#45=EDGE_LOOP('',(#96,#97));
#46=EDGE_LOOP('',(#98));
#47=EDGE_LOOP('',(#99));
#48=EDGE_LOOP('',(#100,#101,#102,#103));
#49=EDGE_LOOP('',(#104));
#50=EDGE_LOOP('',(#105));
#51=EDGE_LOOP('',(#106,#107,#108,#109));
#52=EDGE_LOOP('',(#110));
#53=CIRCLE('',#142,1.50501256289338);
#54=CIRCLE('',#143,1.);
#55=CIRCLE('',#144,2.5);
#56=CIRCLE('',#145,2.5);
#57=CIRCLE('',#148,3.1);
#58=CIRCLE('',#149,3.1);
#59=CIRCLE('',#152,6.);
#60=CIRCLE('',#153,5.);
#61=CIRCLE('',#155,6.);
#62=CIRCLE('',#158,5.);
#63=VERTEX_POINT('',#205);
#64=VERTEX_POINT('',#207);
#65=VERTEX_POINT('',#209);
#66=VERTEX_POINT('',#214);
#67=VERTEX_POINT('',#216);
#68=VERTEX_POINT('',#221);
#69=VERTEX_POINT('',#223);
#70=VERTEX_POINT('',#226);
#71=VERTEX_POINT('',#231);
#72=EDGE_CURVE('',#63,#63,#53,.T.);
#73=EDGE_CURVE('',#63,#64,#54,.T.);
#74=EDGE_CURVE('',#65,#64,#55,.T.);
#75=EDGE_CURVE('',#64,#65,#56,.T.);
#76=EDGE_CURVE('',#66,#66,#57,.T.);
#77=EDGE_CURVE('',#66,#67,#18,.T.);
#78=EDGE_CURVE('',#67,#67,#58,.T.);
#79=EDGE_CURVE('',#68,#68,#59,.T.);
#80=EDGE_CURVE('',#69,#69,#60,.T.);
#81=EDGE_CURVE('',#70,#70,#61,.T.);
#82=EDGE_CURVE('',#70,#68,#19,.T.);
#83=EDGE_CURVE('',#71,#71,#62,.T.);
#84=EDGE_CURVE('',#71,#69,#20,.T.);
#85=ORIENTED_EDGE('',*,*,#72,.T.);
#86=ORIENTED_EDGE('',*,*,#73,.T.);
#87=ORIENTED_EDGE('',*,*,#74,.F.);
#88=ORIENTED_EDGE('',*,*,#75,.F.);
#89=ORIENTED_EDGE('',*,*,#73,.F.);
#90=ORIENTED_EDGE('',*,*,#72,.F.);
#91=ORIENTED_EDGE('',*,*,#76,.F.);
#92=ORIENTED_EDGE('',*,*,#77,.T.);
#93=ORIENTED_EDGE('',*,*,#78,.F.);
#94=ORIENTED_EDGE('',*,*,#77,.F.);
#95=ORIENTED_EDGE('',*,*,#76,.T.);
#96=ORIENTED_EDGE('',*,*,#74,.T.);
#97=ORIENTED_EDGE('',*,*,#75,.T.);
#98=ORIENTED_EDGE('',*,*,#79,.T.);
#99=ORIENTED_EDGE('',*,*,#80,.F.);
#100=ORIENTED_EDGE('',*,*,#81,.F.);
#101=ORIENTED_EDGE('',*,*,#82,.T.);
#102=ORIENTED_EDGE('',*,*,#79,.F.);
#103=ORIENTED_EDGE('',*,*,#82,.F.);
#104=ORIENTED_EDGE('',*,*,#81,.T.);
#105=ORIENTED_EDGE('',*,*,#78,.T.);
#106=ORIENTED_EDGE('',*,*,#83,.F.);
#107=ORIENTED_EDGE('',*,*,#84,.T.);
#108=ORIENTED_EDGE('',*,*,#80,.T.);
#109=ORIENTED_EDGE('',*,*,#84,.F.);
#110=ORIENTED_EDGE('',*,*,#83,.T.);
#111=TOROIDAL_SURFACE('',#141,1.50501256289338,1.);
#112=ADVANCED_FACE('',(#32),#111,.T.);
#113=ADVANCED_FACE('',(#33),#27,.T.);
#114=ADVANCED_FACE('',(#34),#24,.T.);
#115=ADVANCED_FACE('',(#35,#15),#28,.T.);
#116=ADVANCED_FACE('',(#36,#16),#29,.F.);
#117=ADVANCED_FACE('',(#37),#25,.T.);
#118=ADVANCED_FACE('',(#38,#17),#30,.T.);
#119=ADVANCED_FACE('',(#39),#26,.T.);
#120=ADVANCED_FACE('',(#40),#31,.F.);
#121=CLOSED_SHELL('',(#112,#113,#114,#115,#116,#117,#118,#119,#120));
#122=DERIVED_UNIT_ELEMENT(#124,1.);
#123=DERIVED_UNIT_ELEMENT(#240,3.);
#124=(
MASS_UNIT()
NAMED_UNIT(*)
SI_UNIT($,.GRAM.)
);
#125=DERIVED_UNIT((#122,#123));
#126=MEASURE_REPRESENTATION_ITEM('density measure',
POSITIVE_RATIO_MEASURE(1.),#125);
#127=PROPERTY_DEFINITION_REPRESENTATION(#132,#129);
#128=PROPERTY_DEFINITION_REPRESENTATION(#133,#130);
#129=REPRESENTATION('material name',(#131),#237);
#130=REPRESENTATION('density',(#126),#237);
#131=DESCRIPTIVE_REPRESENTATION_ITEM('Generic','Generic');
#132=PROPERTY_DEFINITION('material property','material name',#247);
#133=PROPERTY_DEFINITION('material property','density of part',#247);
#134=DATE_TIME_ROLE('creation_date');
#135=APPLIED_DATE_AND_TIME_ASSIGNMENT(#136,#134,(#247));
#136=DATE_AND_TIME(#137,#138);
#137=CALENDAR_DATE(2017,19,2);
#138=LOCAL_TIME(19,50,58.,#139);
#139=COORDINATED_UNIVERSAL_TIME_OFFSET(0,0,.BEHIND.);
#140=AXIS2_PLACEMENT_3D('placement',#203,#160,#161);
#141=AXIS2_PLACEMENT_3D('',#204,#162,#163);
#142=AXIS2_PLACEMENT_3D('',#206,#164,#165);
#143=AXIS2_PLACEMENT_3D('',#208,#166,#167);
#144=AXIS2_PLACEMENT_3D('',#210,#168,#169);
#145=AXIS2_PLACEMENT_3D('',#211,#170,#171);
#146=AXIS2_PLACEMENT_3D('',#212,#172,#173);
#147=AXIS2_PLACEMENT_3D('',#213,#174,#175);
#148=AXIS2_PLACEMENT_3D('',#215,#176,#177);
#149=AXIS2_PLACEMENT_3D('',#218,#179,#180);
#150=AXIS2_PLACEMENT_3D('',#219,#181,#182);
#151=AXIS2_PLACEMENT_3D('',#220,#183,#184);
#152=AXIS2_PLACEMENT_3D('',#222,#185,#186);
#153=AXIS2_PLACEMENT_3D('',#224,#187,#188);
#154=AXIS2_PLACEMENT_3D('',#225,#189,#190);
#155=AXIS2_PLACEMENT_3D('',#227,#191,#192);
#156=AXIS2_PLACEMENT_3D('',#229,#194,#195);
#157=AXIS2_PLACEMENT_3D('',#230,#196,#197);
#158=AXIS2_PLACEMENT_3D('',#232,#198,#199);
#159=AXIS2_PLACEMENT_3D('',#234,#201,#202);
#160=DIRECTION('axis',(0.,0.,1.));
#161=DIRECTION('refdir',(1.,0.,0.));
#162=DIRECTION('center_axis',(0.,0.,1.));
#163=DIRECTION('ref_axis',(1.,0.,0.));
#164=DIRECTION('center_axis',(0.,0.,-1.));
#165=DIRECTION('ref_axis',(1.,0.,0.));
#166=DIRECTION('center_axis',(-1.22464679914735E-16,-1.,0.));
#167=DIRECTION('ref_axis',(-1.,1.22464679914735E-16,0.));
#168=DIRECTION('center_axis',(0.,0.,-1.));
#169=DIRECTION('ref_axis',(-1.,0.,0.));
#170=DIRECTION('center_axis',(0.,0.,-1.));
#171=DIRECTION('ref_axis',(-1.,0.,0.));
#172=DIRECTION('center_axis',(0.,0.,1.));
#173=DIRECTION('ref_axis',(1.,0.,0.));
#174=DIRECTION('center_axis',(0.,0.,1.));
#175=DIRECTION('ref_axis',(-1.,0.,0.));
#176=DIRECTION('center_axis',(0.,0.,1.));
#177=DIRECTION('ref_axis',(-1.,0.,0.));
#178=DIRECTION('',(0.,0.,-1.));
#179=DIRECTION('center_axis',(0.,0.,-1.));
#180=DIRECTION('ref_axis',(-1.,0.,0.));
#181=DIRECTION('center_axis',(0.,0.,1.));
#182=DIRECTION('ref_axis',(1.,0.,0.));
#183=DIRECTION('center_axis',(0.,0.,1.));
#184=DIRECTION('ref_axis',(1.,0.,0.));
#185=DIRECTION('center_axis',(0.,0.,-1.));
#186=DIRECTION('ref_axis',(-1.,0.,0.));
#187=DIRECTION('center_axis',(0.,0.,-1.));
#188=DIRECTION('ref_axis',(-1.,0.,0.));
#189=DIRECTION('center_axis',(0.,0.,1.));
#190=DIRECTION('ref_axis',(-1.,0.,0.));
#191=DIRECTION('center_axis',(0.,0.,1.));
#192=DIRECTION('ref_axis',(-1.,0.,0.));
#193=DIRECTION('',(0.,0.,-1.));
#194=DIRECTION('center_axis',(0.,0.,1.));
#195=DIRECTION('ref_axis',(1.,0.,0.));
#196=DIRECTION('center_axis',(0.,0.,-1.));
#197=DIRECTION('ref_axis',(-1.,0.,0.));
#198=DIRECTION('center_axis',(0.,0.,-1.));
#199=DIRECTION('ref_axis',(-1.,0.,0.));
#200=DIRECTION('',(0.,0.,1.));
#201=DIRECTION('center_axis',(0.,0.,1.));
#202=DIRECTION('ref_axis',(1.,0.,0.));
#203=CARTESIAN_POINT('',(0.,0.,0.));
#204=CARTESIAN_POINT('Origin',(0.,0.,0.8));
#205=CARTESIAN_POINT('',(-1.50501256289338,1.84310881782393E-16,1.8));
#206=CARTESIAN_POINT('Origin',(0.,0.,1.8));
#207=CARTESIAN_POINT('',(-2.5,3.06161699786838E-16,0.9));
#208=CARTESIAN_POINT('Origin',(-1.50501256289338,1.84310881782393E-16,0.8));
#209=CARTESIAN_POINT('',(2.5,3.06161699786838E-16,0.9));
#210=CARTESIAN_POINT('Origin',(0.,0.,0.9));
#211=CARTESIAN_POINT('Origin',(0.,0.,0.9));
#212=CARTESIAN_POINT('Origin',(-1.18032060367666E-16,0.,1.8));
#213=CARTESIAN_POINT('Origin',(0.,0.,0.8));
#214=CARTESIAN_POINT('',(3.1,3.7964050773568E-16,0.9));
#215=CARTESIAN_POINT('Origin',(0.,0.,0.9));
#216=CARTESIAN_POINT('',(3.1,3.7964050773568E-16,0.8));
#217=CARTESIAN_POINT('',(3.1,3.7964050773568E-16,0.8));
#218=CARTESIAN_POINT('Origin',(0.,0.,0.8));
#219=CARTESIAN_POINT('Origin',(-1.80860233793182E-16,0.,0.9));
#220=CARTESIAN_POINT('Origin',(-6.78022909193566E-16,1.54197642309049E-16,
0.));
#221=CARTESIAN_POINT('',(6.,7.34788079488412E-16,0.));
#222=CARTESIAN_POINT('Origin',(0.,0.,0.));
#223=CARTESIAN_POINT('',(5.,6.12323399573677E-16,0.));
#224=CARTESIAN_POINT('Origin',(0.,0.,0.));
#225=CARTESIAN_POINT('Origin',(0.,0.,0.));
#226=CARTESIAN_POINT('',(6.,7.34788079488412E-16,0.8));
#227=CARTESIAN_POINT('Origin',(0.,0.,0.8));
#228=CARTESIAN_POINT('',(6.,7.34788079488412E-16,0.));
#229=CARTESIAN_POINT('Origin',(-6.78022909193566E-16,1.54197642309049E-16,
0.8));
#230=CARTESIAN_POINT('Origin',(0.,0.,0.));
#231=CARTESIAN_POINT('',(5.,6.12323399573677E-16,-50.8));
#232=CARTESIAN_POINT('Origin',(0.,0.,-50.8));
#233=CARTESIAN_POINT('',(5.,-6.12323399573677E-16,0.));
#234=CARTESIAN_POINT('Origin',(-2.36064120735332E-16,0.,-50.8));
#235=UNCERTAINTY_MEASURE_WITH_UNIT(LENGTH_MEASURE(0.01),#239,
'DISTANCE_ACCURACY_VALUE',
'Maximum model space distance between geometric entities at asserted c
onnectivities');
#236=UNCERTAINTY_MEASURE_WITH_UNIT(LENGTH_MEASURE(0.01),#239,
'DISTANCE_ACCURACY_VALUE',
'Maximum model space distance between geometric entities at asserted c
onnectivities');
#237=(
GEOMETRIC_REPRESENTATION_CONTEXT(3)
GLOBAL_UNCERTAINTY_ASSIGNED_CONTEXT((#235))
GLOBAL_UNIT_ASSIGNED_CONTEXT((#239,#241,#242))
REPRESENTATION_CONTEXT('','3D')
);
#238=(
GEOMETRIC_REPRESENTATION_CONTEXT(3)
GLOBAL_UNCERTAINTY_ASSIGNED_CONTEXT((#236))
GLOBAL_UNIT_ASSIGNED_CONTEXT((#239,#241,#242))
REPRESENTATION_CONTEXT('','3D')
);
#239=(
LENGTH_UNIT()
NAMED_UNIT(*)
SI_UNIT(.MILLI.,.METRE.)
);
#240=(
LENGTH_UNIT()
NAMED_UNIT(*)
SI_UNIT(.CENTI.,.METRE.)
);
#241=(
NAMED_UNIT(*)
PLANE_ANGLE_UNIT()
SI_UNIT($,.RADIAN.)
);
#242=(
NAMED_UNIT(*)
SI_UNIT($,.STERADIAN.)
SOLID_ANGLE_UNIT()
);
#243=SHAPE_DEFINITION_REPRESENTATION(#244,#245);
#244=PRODUCT_DEFINITION_SHAPE('',$,#247);
#245=SHAPE_REPRESENTATION('',(#140),#237);
#246=PRODUCT_DEFINITION_CONTEXT('part definition',#251,'design');
#247=PRODUCT_DEFINITION('AM-ODB000-60','AM-ODB000-60',#248,#246);
#248=PRODUCT_DEFINITION_FORMATION('',$,#253);
#249=PRODUCT_RELATED_PRODUCT_CATEGORY('AM-ODB000-60','AM-ODB000-60',(#253));
#250=APPLICATION_PROTOCOL_DEFINITION('international standard',
'automotive_design',2009,#251);
#251=APPLICATION_CONTEXT(
'Core Data for Automotive Mechanical Design Process');
#252=PRODUCT_CONTEXT('part definition',#251,'mechanical');
#253=PRODUCT('AM-ODB000-60','AM-ODB000-60',$,(#252));
#254=PRESENTATION_STYLE_ASSIGNMENT((#255));
#255=SURFACE_STYLE_USAGE(.BOTH.,#258);
#256=SURFACE_STYLE_RENDERING_WITH_PROPERTIES($,#262,(#257));
#257=SURFACE_STYLE_TRANSPARENT(0.);
#258=SURFACE_SIDE_STYLE('',(#259,#256));
#259=SURFACE_STYLE_FILL_AREA(#260);
#260=FILL_AREA_STYLE('',(#261));
#261=FILL_AREA_STYLE_COLOUR('',#262);
#262=COLOUR_RGB('',0.749019607843137,0.749019607843137,0.749019607843137);
ENDSEC;
END-ISO-10303-21;
