ISO-10303-21;
HEADER;
/* Generated by software containing ST-Developer
 * from STEP Tools, Inc. (www.steptools.com) 
 */

FILE_DESCRIPTION(
/* description */ (''),
/* implementation_level */ '2;1');

FILE_NAME(
/* name */ 
'D:\\$Workingspace\\Designs\\Meblowka\\uchwyty\\GZ-DUNE\\GZ-DUNE.stp',
/* time_stamp */ '2021-11-25T12:42:41+01:00',
/* author */ ('tomaszw'),
/* organization */ (''),
/* preprocessor_version */ 'ST-DEVELOPER v18.1',
/* originating_system */ 'Autodesk Inventor 2021',
/* authorisation */ '');

FILE_SCHEMA (('AUTOMOTIVE_DESIGN { 1 0 10303 214 3 1 1 }'));
ENDSEC;

DATA;
#10=MECHANICAL_DESIGN_GEOMETRIC_PRESENTATION_REPRESENTATION('',(#13),#411);
#11=SHAPE_REPRESENTATION_RELATIONSHIP('SRR','None',#418,#12);
#12=ADVANCED_BREP_SHAPE_REPRESENTATION('',(#14),#410);
#13=STYLED_ITEM('',(#427),#14);
#14=MANIFOLD_SOLID_BREP('Solid1',#210);
#15=FACE_BOUND('',#51,.T.);
#16=PLANE('',#251);
#17=PLANE('',#263);
#18=TOROIDAL_SURFACE('',#236,16.55,0.2);
#19=TOROIDAL_SURFACE('',#248,16.55,0.2);
#20=TOROIDAL_SURFACE('',#252,4.74999999999983,2.00000000000017);
#21=TOROIDAL_SURFACE('',#260,5.75,1.);
#22=TOROIDAL_SURFACE('',#264,53.9876581997279,50.);
#23=CYLINDRICAL_SURFACE('',#235,1.621);
#24=CYLINDRICAL_SURFACE('',#242,16.75);
#25=CYLINDRICAL_SURFACE('',#257,6.75);
#26=FACE_OUTER_BOUND('',#39,.T.);
#27=FACE_OUTER_BOUND('',#40,.T.);
#28=FACE_OUTER_BOUND('',#41,.T.);
#29=FACE_OUTER_BOUND('',#42,.T.);
#30=FACE_OUTER_BOUND('',#43,.T.);
#31=FACE_OUTER_BOUND('',#44,.T.);
#32=FACE_OUTER_BOUND('',#45,.T.);
#33=FACE_OUTER_BOUND('',#46,.T.);
#34=FACE_OUTER_BOUND('',#47,.T.);
#35=FACE_OUTER_BOUND('',#48,.T.);
#36=FACE_OUTER_BOUND('',#49,.T.);
#37=FACE_OUTER_BOUND('',#50,.T.);
#38=FACE_OUTER_BOUND('',#52,.T.);
#39=EDGE_LOOP('',(#136,#137,#138));
#40=EDGE_LOOP('',(#139,#140,#141,#142));
#41=EDGE_LOOP('',(#143,#144,#145,#146));
#42=EDGE_LOOP('',(#147,#148,#149,#150,#151,#152));
#43=EDGE_LOOP('',(#153,#154,#155,#156,#157,#158));
#44=EDGE_LOOP('',(#159,#160,#161,#162,#163,#164));
#45=EDGE_LOOP('',(#165,#166,#167,#168,#169));
#46=EDGE_LOOP('',(#170));
#47=EDGE_LOOP('',(#171,#172,#173,#174,#175));
#48=EDGE_LOOP('',(#176,#177,#178,#179,#180,#181));
#49=EDGE_LOOP('',(#182,#183,#184,#185,#186));
#50=EDGE_LOOP('',(#187));
#51=EDGE_LOOP('',(#188));
#52=EDGE_LOOP('',(#189,#190,#191,#192,#193));
#53=LINE('',#351,#59);
#54=LINE('',#356,#60);
#55=LINE('',#359,#61);
#56=LINE('',#372,#62);
#57=LINE('',#380,#63);
#58=LINE('',#399,#64);
#59=VECTOR('',#272,0.8105);
#60=VECTOR('',#277,1.8105);
#61=VECTOR('',#282,1.621);
#62=VECTOR('',#297,16.75);
#63=VECTOR('',#306,10.375);
#64=VECTOR('',#331,6.75);
#65=CIRCLE('',#231,1.621);
#66=CIRCLE('',#233,2.);
#67=CIRCLE('',#234,1.621);
#68=CIRCLE('',#237,16.5733682495135);
#69=CIRCLE('',#238,16.5733682495135);
#70=CIRCLE('',#239,0.2);
#71=CIRCLE('',#240,16.75);
#72=CIRCLE('',#241,16.75);
#73=CIRCLE('',#243,16.75);
#74=CIRCLE('',#244,16.75);
#75=CIRCLE('',#246,3.99999999999999);
#76=CIRCLE('',#247,3.99999999999999);
#77=CIRCLE('',#249,0.2);
#78=CIRCLE('',#250,16.55);
#79=CIRCLE('',#253,6.75);
#80=CIRCLE('',#254,6.75);
#81=CIRCLE('',#255,2.00000000000017);
#82=CIRCLE('',#256,6.64375608460491);
#83=CIRCLE('',#258,6.75);
#84=CIRCLE('',#259,6.75);
#85=CIRCLE('',#261,5.75);
#86=CIRCLE('',#262,1.);
#87=CIRCLE('',#265,50.);
#88=VERTEX_POINT('',#348);
#89=VERTEX_POINT('',#350);
#90=VERTEX_POINT('',#353);
#91=VERTEX_POINT('',#355);
#92=VERTEX_POINT('',#361);
#93=VERTEX_POINT('',#362);
#94=VERTEX_POINT('',#365);
#95=VERTEX_POINT('',#367);
#96=VERTEX_POINT('',#371);
#97=VERTEX_POINT('',#373);
#98=VERTEX_POINT('',#377);
#99=VERTEX_POINT('',#378);
#100=VERTEX_POINT('',#383);
#101=VERTEX_POINT('',#388);
#102=VERTEX_POINT('',#389);
#103=VERTEX_POINT('',#392);
#104=VERTEX_POINT('',#396);
#105=VERTEX_POINT('',#397);
#106=VERTEX_POINT('',#402);
#107=EDGE_CURVE('',#88,#88,#65,.T.);
#108=EDGE_CURVE('',#88,#89,#53,.T.);
#109=EDGE_CURVE('',#90,#90,#66,.T.);
#110=EDGE_CURVE('',#90,#91,#54,.T.);
#111=EDGE_CURVE('',#91,#91,#67,.T.);
#112=EDGE_CURVE('',#91,#88,#55,.T.);
#113=EDGE_CURVE('',#92,#93,#68,.T.);
#114=EDGE_CURVE('',#93,#92,#69,.T.);
#115=EDGE_CURVE('',#92,#94,#70,.T.);
#116=EDGE_CURVE('',#94,#95,#71,.T.);
#117=EDGE_CURVE('',#95,#94,#72,.T.);
#118=EDGE_CURVE('',#95,#96,#56,.T.);
#119=EDGE_CURVE('',#97,#96,#73,.T.);
#120=EDGE_CURVE('',#96,#97,#74,.T.);
#121=EDGE_CURVE('',#98,#99,#75,.T.);
#122=EDGE_CURVE('',#98,#93,#57,.T.);
#123=EDGE_CURVE('',#99,#98,#76,.T.);
#124=EDGE_CURVE('',#97,#100,#77,.T.);
#125=EDGE_CURVE('',#100,#100,#78,.T.);
#126=EDGE_CURVE('',#101,#102,#79,.T.);
#127=EDGE_CURVE('',#102,#101,#80,.T.);
#128=EDGE_CURVE('',#102,#103,#81,.T.);
#129=EDGE_CURVE('',#103,#103,#82,.T.);
#130=EDGE_CURVE('',#104,#105,#83,.T.);
#131=EDGE_CURVE('',#104,#101,#58,.T.);
#132=EDGE_CURVE('',#105,#104,#84,.T.);
#133=EDGE_CURVE('',#106,#106,#85,.T.);
#134=EDGE_CURVE('',#106,#105,#86,.T.);
#135=EDGE_CURVE('',#99,#103,#87,.T.);
#136=ORIENTED_EDGE('',*,*,#107,.T.);
#137=ORIENTED_EDGE('',*,*,#108,.T.);
#138=ORIENTED_EDGE('',*,*,#108,.F.);
#139=ORIENTED_EDGE('',*,*,#109,.F.);
#140=ORIENTED_EDGE('',*,*,#110,.T.);
#141=ORIENTED_EDGE('',*,*,#111,.F.);
#142=ORIENTED_EDGE('',*,*,#110,.F.);
#143=ORIENTED_EDGE('',*,*,#111,.T.);
#144=ORIENTED_EDGE('',*,*,#112,.T.);
#145=ORIENTED_EDGE('',*,*,#107,.F.);
#146=ORIENTED_EDGE('',*,*,#112,.F.);
#147=ORIENTED_EDGE('',*,*,#113,.T.);
#148=ORIENTED_EDGE('',*,*,#114,.T.);
#149=ORIENTED_EDGE('',*,*,#115,.T.);
#150=ORIENTED_EDGE('',*,*,#116,.T.);
#151=ORIENTED_EDGE('',*,*,#117,.T.);
#152=ORIENTED_EDGE('',*,*,#115,.F.);
#153=ORIENTED_EDGE('',*,*,#117,.F.);
#154=ORIENTED_EDGE('',*,*,#118,.T.);
#155=ORIENTED_EDGE('',*,*,#119,.F.);
#156=ORIENTED_EDGE('',*,*,#120,.F.);
#157=ORIENTED_EDGE('',*,*,#118,.F.);
#158=ORIENTED_EDGE('',*,*,#116,.F.);
#159=ORIENTED_EDGE('',*,*,#121,.F.);
#160=ORIENTED_EDGE('',*,*,#122,.T.);
#161=ORIENTED_EDGE('',*,*,#113,.F.);
#162=ORIENTED_EDGE('',*,*,#114,.F.);
#163=ORIENTED_EDGE('',*,*,#122,.F.);
#164=ORIENTED_EDGE('',*,*,#123,.F.);
#165=ORIENTED_EDGE('',*,*,#119,.T.);
#166=ORIENTED_EDGE('',*,*,#120,.T.);
#167=ORIENTED_EDGE('',*,*,#124,.T.);
#168=ORIENTED_EDGE('',*,*,#125,.T.);
#169=ORIENTED_EDGE('',*,*,#124,.F.);
#170=ORIENTED_EDGE('',*,*,#125,.F.);
#171=ORIENTED_EDGE('',*,*,#126,.F.);
#172=ORIENTED_EDGE('',*,*,#127,.F.);
#173=ORIENTED_EDGE('',*,*,#128,.T.);
#174=ORIENTED_EDGE('',*,*,#129,.T.);
#175=ORIENTED_EDGE('',*,*,#128,.F.);
#176=ORIENTED_EDGE('',*,*,#130,.F.);
#177=ORIENTED_EDGE('',*,*,#131,.T.);
#178=ORIENTED_EDGE('',*,*,#126,.T.);
#179=ORIENTED_EDGE('',*,*,#127,.T.);
#180=ORIENTED_EDGE('',*,*,#131,.F.);
#181=ORIENTED_EDGE('',*,*,#132,.F.);
#182=ORIENTED_EDGE('',*,*,#133,.F.);
#183=ORIENTED_EDGE('',*,*,#134,.T.);
#184=ORIENTED_EDGE('',*,*,#132,.T.);
#185=ORIENTED_EDGE('',*,*,#130,.T.);
#186=ORIENTED_EDGE('',*,*,#134,.F.);
#187=ORIENTED_EDGE('',*,*,#133,.T.);
#188=ORIENTED_EDGE('',*,*,#109,.T.);
#189=ORIENTED_EDGE('',*,*,#121,.T.);
#190=ORIENTED_EDGE('',*,*,#135,.T.);
#191=ORIENTED_EDGE('',*,*,#129,.F.);
#192=ORIENTED_EDGE('',*,*,#135,.F.);
#193=ORIENTED_EDGE('',*,*,#123,.T.);
#194=CONICAL_SURFACE('',#230,0.8105,1.02974425867665);
#195=CONICAL_SURFACE('',#232,1.8105,0.785398163397448);
#196=CONICAL_SURFACE('',#245,10.375,1.45368758222803);
#197=ADVANCED_FACE('',(#26),#194,.F.);
#198=ADVANCED_FACE('',(#27),#195,.F.);
#199=ADVANCED_FACE('',(#28),#23,.F.);
#200=ADVANCED_FACE('',(#29),#18,.T.);
#201=ADVANCED_FACE('',(#30),#24,.T.);
#202=ADVANCED_FACE('',(#31),#196,.T.);
#203=ADVANCED_FACE('',(#32),#19,.T.);
#204=ADVANCED_FACE('',(#33),#16,.T.);
#205=ADVANCED_FACE('',(#34),#20,.T.);
#206=ADVANCED_FACE('',(#35),#25,.T.);
#207=ADVANCED_FACE('',(#36),#21,.T.);
#208=ADVANCED_FACE('',(#37,#15),#17,.T.);
#209=ADVANCED_FACE('',(#38),#22,.F.);
#210=CLOSED_SHELL('',(#197,#198,#199,#200,#201,#202,#203,#204,#205,#206,
#207,#208,#209));
#211=DERIVED_UNIT_ELEMENT(#213,1.);
#212=DERIVED_UNIT_ELEMENT(#413,-3.);
#213=(
MASS_UNIT()
NAMED_UNIT(*)
SI_UNIT($,.GRAM.)
);
#214=DERIVED_UNIT((#211,#212));
#215=MEASURE_REPRESENTATION_ITEM('density measure',
POSITIVE_RATIO_MEASURE(1.),#214);
#216=PROPERTY_DEFINITION_REPRESENTATION(#221,#218);
#217=PROPERTY_DEFINITION_REPRESENTATION(#222,#219);
#218=REPRESENTATION('material name',(#220),#410);
#219=REPRESENTATION('density',(#215),#410);
#220=DESCRIPTIVE_REPRESENTATION_ITEM('Generic','Generic');
#221=PROPERTY_DEFINITION('material property','material name',#420);
#222=PROPERTY_DEFINITION('material property','density of part',#420);
#223=DATE_TIME_ROLE('creation_date');
#224=APPLIED_DATE_AND_TIME_ASSIGNMENT(#225,#223,(#420));
#225=DATE_AND_TIME(#226,#227);
#226=CALENDAR_DATE(2021,22,10);
#227=LOCAL_TIME(0,0,0.,#228);
#228=COORDINATED_UNIVERSAL_TIME_OFFSET(0,0,.BEHIND.);
#229=AXIS2_PLACEMENT_3D('placement',#346,#266,#267);
#230=AXIS2_PLACEMENT_3D('',#347,#268,#269);
#231=AXIS2_PLACEMENT_3D('',#349,#270,#271);
#232=AXIS2_PLACEMENT_3D('',#352,#273,#274);
#233=AXIS2_PLACEMENT_3D('',#354,#275,#276);
#234=AXIS2_PLACEMENT_3D('',#357,#278,#279);
#235=AXIS2_PLACEMENT_3D('',#358,#280,#281);
#236=AXIS2_PLACEMENT_3D('',#360,#283,#284);
#237=AXIS2_PLACEMENT_3D('',#363,#285,#286);
#238=AXIS2_PLACEMENT_3D('',#364,#287,#288);
#239=AXIS2_PLACEMENT_3D('',#366,#289,#290);
#240=AXIS2_PLACEMENT_3D('',#368,#291,#292);
#241=AXIS2_PLACEMENT_3D('',#369,#293,#294);
#242=AXIS2_PLACEMENT_3D('',#370,#295,#296);
#243=AXIS2_PLACEMENT_3D('',#374,#298,#299);
#244=AXIS2_PLACEMENT_3D('',#375,#300,#301);
#245=AXIS2_PLACEMENT_3D('',#376,#302,#303);
#246=AXIS2_PLACEMENT_3D('',#379,#304,#305);
#247=AXIS2_PLACEMENT_3D('',#381,#307,#308);
#248=AXIS2_PLACEMENT_3D('',#382,#309,#310);
#249=AXIS2_PLACEMENT_3D('',#384,#311,#312);
#250=AXIS2_PLACEMENT_3D('',#385,#313,#314);
#251=AXIS2_PLACEMENT_3D('',#386,#315,#316);
#252=AXIS2_PLACEMENT_3D('',#387,#317,#318);
#253=AXIS2_PLACEMENT_3D('',#390,#319,#320);
#254=AXIS2_PLACEMENT_3D('',#391,#321,#322);
#255=AXIS2_PLACEMENT_3D('',#393,#323,#324);
#256=AXIS2_PLACEMENT_3D('',#394,#325,#326);
#257=AXIS2_PLACEMENT_3D('',#395,#327,#328);
#258=AXIS2_PLACEMENT_3D('',#398,#329,#330);
#259=AXIS2_PLACEMENT_3D('',#400,#332,#333);
#260=AXIS2_PLACEMENT_3D('',#401,#334,#335);
#261=AXIS2_PLACEMENT_3D('',#403,#336,#337);
#262=AXIS2_PLACEMENT_3D('',#404,#338,#339);
#263=AXIS2_PLACEMENT_3D('',#405,#340,#341);
#264=AXIS2_PLACEMENT_3D('',#406,#342,#343);
#265=AXIS2_PLACEMENT_3D('',#407,#344,#345);
#266=DIRECTION('axis',(0.,0.,1.));
#267=DIRECTION('refdir',(1.,0.,0.));
#268=DIRECTION('center_axis',(0.,-1.,0.));
#269=DIRECTION('ref_axis',(1.,0.,0.));
#270=DIRECTION('center_axis',(0.,-1.,0.));
#271=DIRECTION('ref_axis',(1.,0.,0.));
#272=DIRECTION('',(0.857167300702112,0.515038074910054,1.04972719113862E-16));
#273=DIRECTION('center_axis',(0.,-1.,0.));
#274=DIRECTION('ref_axis',(1.,0.,0.));
#275=DIRECTION('center_axis',(0.,1.,0.));
#276=DIRECTION('ref_axis',(1.,0.,0.));
#277=DIRECTION('',(0.707106781186547,0.707106781186547,8.65956056235493E-17));
#278=DIRECTION('center_axis',(0.,-1.,0.));
#279=DIRECTION('ref_axis',(1.,0.,0.));
#280=DIRECTION('center_axis',(0.,-1.,0.));
#281=DIRECTION('ref_axis',(1.,0.,0.));
#282=DIRECTION('',(0.,1.,0.));
#283=DIRECTION('center_axis',(0.,-1.,0.));
#284=DIRECTION('ref_axis',(0.,0.,-1.));
#285=DIRECTION('center_axis',(0.,1.,0.));
#286=DIRECTION('ref_axis',(-1.,0.,0.));
#287=DIRECTION('center_axis',(0.,1.,0.));
#288=DIRECTION('ref_axis',(-1.,0.,0.));
#289=DIRECTION('center_axis',(-1.,0.,-1.22464679914735E-16));
#290=DIRECTION('ref_axis',(-1.22464679914735E-16,0.,1.));
#291=DIRECTION('center_axis',(0.,-1.,0.));
#292=DIRECTION('ref_axis',(-1.,0.,1.22464679914735E-16));
#293=DIRECTION('center_axis',(0.,-1.,0.));
#294=DIRECTION('ref_axis',(-1.,0.,1.22464679914735E-16));
#295=DIRECTION('center_axis',(0.,-1.,0.));
#296=DIRECTION('ref_axis',(1.,0.,0.));
#297=DIRECTION('',(0.,1.,0.));
#298=DIRECTION('center_axis',(0.,1.,0.));
#299=DIRECTION('ref_axis',(-1.,0.,1.22464679914735E-16));
#300=DIRECTION('center_axis',(0.,1.,0.));
#301=DIRECTION('ref_axis',(-1.,0.,1.22464679914735E-16));
#302=DIRECTION('center_axis',(0.,1.,0.));
#303=DIRECTION('ref_axis',(1.,0.,0.));
#304=DIRECTION('center_axis',(0.,-1.,0.));
#305=DIRECTION('ref_axis',(1.,0.,0.));
#306=DIRECTION('',(-0.993150604322876,0.116841247567397,-1.21625870865527E-16));
#307=DIRECTION('center_axis',(0.,-1.,0.));
#308=DIRECTION('ref_axis',(1.,0.,0.));
#309=DIRECTION('center_axis',(0.,-1.,0.));
#310=DIRECTION('ref_axis',(0.,0.,-1.));
#311=DIRECTION('center_axis',(-1.,0.,-1.22464679914735E-16));
#312=DIRECTION('ref_axis',(-1.22464679914735E-16,0.,1.));
#313=DIRECTION('center_axis',(0.,-1.,0.));
#314=DIRECTION('ref_axis',(-1.,0.,1.22464679914735E-16));
#315=DIRECTION('center_axis',(0.,1.,0.));
#316=DIRECTION('ref_axis',(0.,0.,1.));
#317=DIRECTION('center_axis',(0.,-1.,0.));
#318=DIRECTION('ref_axis',(0.,0.,-1.));
#319=DIRECTION('center_axis',(0.,-1.,0.));
#320=DIRECTION('ref_axis',(1.,0.,0.));
#321=DIRECTION('center_axis',(0.,-1.,0.));
#322=DIRECTION('ref_axis',(1.,0.,0.));
#323=DIRECTION('center_axis',(-1.,0.,-1.22464679914735E-16));
#324=DIRECTION('ref_axis',(-1.22464679914735E-16,0.,1.));
#325=DIRECTION('center_axis',(0.,-1.,0.));
#326=DIRECTION('ref_axis',(1.,0.,0.));
#327=DIRECTION('center_axis',(0.,-1.,0.));
#328=DIRECTION('ref_axis',(1.,0.,0.));
#329=DIRECTION('center_axis',(0.,-1.,0.));
#330=DIRECTION('ref_axis',(1.,0.,0.));
#331=DIRECTION('',(0.,1.,0.));
#332=DIRECTION('center_axis',(0.,-1.,0.));
#333=DIRECTION('ref_axis',(1.,0.,0.));
#334=DIRECTION('center_axis',(0.,-1.,0.));
#335=DIRECTION('ref_axis',(0.,0.,-1.));
#336=DIRECTION('center_axis',(0.,-1.,0.));
#337=DIRECTION('ref_axis',(1.,0.,0.));
#338=DIRECTION('center_axis',(-1.,0.,-1.22464679914735E-16));
#339=DIRECTION('ref_axis',(-1.22464679914735E-16,0.,1.));
#340=DIRECTION('center_axis',(0.,-1.,0.));
#341=DIRECTION('ref_axis',(0.,0.,-1.));
#342=DIRECTION('center_axis',(0.,-1.,0.));
#343=DIRECTION('ref_axis',(0.,0.,-1.));
#344=DIRECTION('center_axis',(-1.,0.,-1.22464679914735E-16));
#345=DIRECTION('ref_axis',(-1.22464679914735E-16,0.,1.));
#346=CARTESIAN_POINT('',(0.,0.,0.));
#347=CARTESIAN_POINT('Origin',(0.,12.2869975317218,0.));
#348=CARTESIAN_POINT('',(-1.621,11.8,-1.98515246141786E-16));
#349=CARTESIAN_POINT('Origin',(0.,11.8,0.));
#350=CARTESIAN_POINT('',(0.,12.7739950634437,0.));
#351=CARTESIAN_POINT('',(-0.8105,12.2869975317218,-9.9257623070893E-17));
#352=CARTESIAN_POINT('Origin',(0.,0.1895,0.));
#353=CARTESIAN_POINT('',(-2.,-1.38777878078145E-16,-2.44929359829471E-16));
#354=CARTESIAN_POINT('Origin',(0.,0.,0.));
#355=CARTESIAN_POINT('',(-1.621,0.379,-1.98515246141786E-16));
#356=CARTESIAN_POINT('',(-1.8105,0.1895,-2.21722302985628E-16));
#357=CARTESIAN_POINT('Origin',(0.,0.379,0.));
#358=CARTESIAN_POINT('Origin',(0.,5.9,0.));
#359=CARTESIAN_POINT('',(-1.621,5.9,-1.98515246141786E-16));
#360=CARTESIAN_POINT('Origin',(0.,20.677849914925,0.));
#361=CARTESIAN_POINT('',(-2.02965223778571E-15,20.4792197940604,16.5733682495135));
#362=CARTESIAN_POINT('',(-16.5733682495135,20.4792197940604,-2.02965223778571E-15));
#363=CARTESIAN_POINT('Origin',(0.,20.4792197940604,-2.02965223778571E-15));
#364=CARTESIAN_POINT('Origin',(0.,20.4792197940604,-2.02965223778571E-15));
#365=CARTESIAN_POINT('',(-2.05128338857182E-15,20.677849914925,16.75));
#366=CARTESIAN_POINT('Origin',(-2.02679045258887E-15,20.677849914925,16.55));
#367=CARTESIAN_POINT('',(-16.75,20.677849914925,-2.05128338857182E-15));
#368=CARTESIAN_POINT('Origin',(0.,20.677849914925,0.));
#369=CARTESIAN_POINT('Origin',(0.,20.677849914925,0.));
#370=CARTESIAN_POINT('Origin',(0.,23.25,0.));
#371=CARTESIAN_POINT('',(-16.75,25.8,-2.05128338857182E-15));
#372=CARTESIAN_POINT('',(-16.75,23.25,-2.05128338857182E-15));
#373=CARTESIAN_POINT('',(-2.05128338857182E-15,25.8,16.75));
#374=CARTESIAN_POINT('Origin',(0.,25.8,0.));
#375=CARTESIAN_POINT('Origin',(0.,25.8,0.));
#376=CARTESIAN_POINT('Origin',(0.,19.75,0.));
#377=CARTESIAN_POINT('',(-3.99999999999999,19.,-4.89858719658941E-16));
#378=CARTESIAN_POINT('',(-4.89858719658941E-16,19.,3.99999999999999));
#379=CARTESIAN_POINT('Origin',(0.,19.,0.));
#380=CARTESIAN_POINT('',(-10.375,19.75,-1.27057105411538E-15));
#381=CARTESIAN_POINT('Origin',(0.,19.,0.));
#382=CARTESIAN_POINT('Origin',(0.,25.8,0.));
#383=CARTESIAN_POINT('',(-2.02679045258887E-15,26.,16.55));
#384=CARTESIAN_POINT('Origin',(-2.02679045258887E-15,25.8,16.55));
#385=CARTESIAN_POINT('Origin',(0.,26.,0.));
#386=CARTESIAN_POINT('Origin',(16.75,26.,0.));
#387=CARTESIAN_POINT('Origin',(0.,1.166302846037,0.));
#388=CARTESIAN_POINT('',(-6.75,1.16630284603704,-8.26636589424463E-16));
#389=CARTESIAN_POINT('',(-8.26636589424463E-16,1.16630284603704,6.75));
#390=CARTESIAN_POINT('Origin',(0.,1.16630284603704,0.));
#391=CARTESIAN_POINT('Origin',(0.,1.16630284603704,0.));
#392=CARTESIAN_POINT('',(-8.13625462332716E-16,1.80948858283617,6.64375608460491));
#393=CARTESIAN_POINT('Origin',(-5.81707229594972E-16,1.166302846037,4.74999999999983));
#394=CARTESIAN_POINT('Origin',(0.,1.80948858283617,0.));
#395=CARTESIAN_POINT('Origin',(0.,1.08315142301852,0.));
#396=CARTESIAN_POINT('',(-6.75,1.,-8.26636589424463E-16));
#397=CARTESIAN_POINT('',(-8.26636589424463E-16,1.,6.75));
#398=CARTESIAN_POINT('Origin',(0.,1.,0.));
#399=CARTESIAN_POINT('',(-6.75,1.08315142301852,-8.26636589424463E-16));
#400=CARTESIAN_POINT('Origin',(0.,1.,0.));
#401=CARTESIAN_POINT('Origin',(0.,1.,0.));
#402=CARTESIAN_POINT('',(-7.04171909509728E-16,0.,5.75));
#403=CARTESIAN_POINT('Origin',(0.,0.,0.));
#404=CARTESIAN_POINT('Origin',(-7.04171909509728E-16,1.,5.75));
#405=CARTESIAN_POINT('Origin',(0.,0.,0.));
#406=CARTESIAN_POINT('Origin',(0.,17.8891320028144,0.));
#407=CARTESIAN_POINT('Origin',(-6.61158128077582E-15,17.8891320028144,53.9876581997279));
#408=UNCERTAINTY_MEASURE_WITH_UNIT(LENGTH_MEASURE(0.01),#412,
'DISTANCE_ACCURACY_VALUE',
'Maximum model space distance between geometric entities at asserted c
onnectivities');
#409=UNCERTAINTY_MEASURE_WITH_UNIT(LENGTH_MEASURE(0.01),#412,
'DISTANCE_ACCURACY_VALUE',
'Maximum model space distance between geometric entities at asserted c
onnectivities');
#410=(
GEOMETRIC_REPRESENTATION_CONTEXT(3)
GLOBAL_UNCERTAINTY_ASSIGNED_CONTEXT((#408))
GLOBAL_UNIT_ASSIGNED_CONTEXT((#412,#414,#415))
REPRESENTATION_CONTEXT('','3D')
);
#411=(
GEOMETRIC_REPRESENTATION_CONTEXT(3)
GLOBAL_UNCERTAINTY_ASSIGNED_CONTEXT((#409))
GLOBAL_UNIT_ASSIGNED_CONTEXT((#412,#414,#415))
REPRESENTATION_CONTEXT('','3D')
);
#412=(
LENGTH_UNIT()
NAMED_UNIT(*)
SI_UNIT(.MILLI.,.METRE.)
);
#413=(
LENGTH_UNIT()
NAMED_UNIT(*)
SI_UNIT(.CENTI.,.METRE.)
);
#414=(
NAMED_UNIT(*)
PLANE_ANGLE_UNIT()
SI_UNIT($,.RADIAN.)
);
#415=(
NAMED_UNIT(*)
SI_UNIT($,.STERADIAN.)
SOLID_ANGLE_UNIT()
);
#416=SHAPE_DEFINITION_REPRESENTATION(#417,#418);
#417=PRODUCT_DEFINITION_SHAPE('',$,#420);
#418=SHAPE_REPRESENTATION('',(#229),#410);
#419=PRODUCT_DEFINITION_CONTEXT('part definition',#424,'design');
#420=PRODUCT_DEFINITION('GZ-DUNE','GZ-DUNE',#421,#419);
#421=PRODUCT_DEFINITION_FORMATION('',$,#426);
#422=PRODUCT_RELATED_PRODUCT_CATEGORY('GZ-DUNE','GZ-DUNE',(#426));
#423=APPLICATION_PROTOCOL_DEFINITION('international standard',
'automotive_design',2009,#424);
#424=APPLICATION_CONTEXT(
'Core Data for Automotive Mechanical Design Process');
#425=PRODUCT_CONTEXT('part definition',#424,'mechanical');
#426=PRODUCT('GZ-DUNE','GZ-DUNE',$,(#425));
#427=PRESENTATION_STYLE_ASSIGNMENT((#428));
#428=SURFACE_STYLE_USAGE(.BOTH.,#431);
#429=SURFACE_STYLE_RENDERING_WITH_PROPERTIES($,#435,(#430));
#430=SURFACE_STYLE_TRANSPARENT(0.);
#431=SURFACE_SIDE_STYLE('',(#432,#429));
#432=SURFACE_STYLE_FILL_AREA(#433);
#433=FILL_AREA_STYLE('',(#434));
#434=FILL_AREA_STYLE_COLOUR('',#435);
#435=COLOUR_RGB('',0.749019607843137,0.749019607843137,0.749019607843137);
ENDSEC;
END-ISO-10303-21;
