ISO-10303-21;
HEADER;
/* Generated by software containing ST-Developer
 * from STEP Tools, Inc. (www.steptools.com) 
 */

FILE_DESCRIPTION(
/* description */ (''),
/* implementation_level */ '2;1');

FILE_NAME(
/* name */ 'GZ-NORD-1.stp',
/* time_stamp */ '2023-08-24T14:43:31+02:00',
/* author */ ('tomaszw'),
/* organization */ (''),
/* preprocessor_version */ 'ST-DEVELOPER v19.2',
/* originating_system */ 'Autodesk Inventor 2023',
/* authorisation */ '');

FILE_SCHEMA (('AUTOMOTIVE_DESIGN { 1 0 10303 214 3 1 1 }'));
ENDSEC;

DATA;
#10=MECHANICAL_DESIGN_GEOMETRIC_PRESENTATION_REPRESENTATION('',(#13),#452);
#11=SHAPE_REPRESENTATION_RELATIONSHIP('SRR','None',#459,#12);
#12=ADVANCED_BREP_SHAPE_REPRESENTATION('',(#14),#451);
#13=STYLED_ITEM('',(#468),#14);
#14=MANIFOLD_SOLID_BREP('Solid1',#197);
#15=FACE_BOUND('',#47,.T.);
#16=PLANE('',#249);
#17=(
BOUNDED_SURFACE()
B_SPLINE_SURFACE(2,2,((#349,#350,#351,#352,#353,#354,#355,#356,#357),(#358,
#359,#360,#361,#362,#363,#364,#365,#366),(#367,#368,#369,#370,#371,#372,
#373,#374,#375),(#376,#377,#378,#379,#380,#381,#382,#383,#384),(#385,#386,
#387,#388,#389,#390,#391,#392,#393)),.UNSPECIFIED.,.F.,.T.,.F.)
B_SPLINE_SURFACE_WITH_KNOTS((3,2,3),(3,2,2,2,3),(-1.34559668136388,-0.0208252175733208,
1.30394624621724),(-3.14159265358979,-1.5707963267949,0.,1.5707963267949,
3.14159265358979),.UNSPECIFIED.)
GEOMETRIC_REPRESENTATION_ITEM()
RATIONAL_B_SPLINE_SURFACE(((1.,0.707106781186548,1.,0.707106781186548,1.,
0.707106781186548,1.,0.707106781186548,1.),(0.788527252250741,0.557572967216895,
0.788527252250741,0.557572967216895,0.788527252250741,0.557572967216895,
0.788527252250741,0.557572967216895,0.788527252250741),(1.,0.707106781186548,
1.,0.707106781186548,1.,0.707106781186548,1.,0.707106781186548,1.),(0.788527252250741,
0.557572967216894,0.788527252250741,0.557572967216894,0.788527252250741,
0.557572967216894,0.788527252250741,0.557572967216894,0.788527252250741),
(1.,0.707106781186548,1.,0.707106781186548,1.,0.707106781186548,1.,0.707106781186548,
1.)))
REPRESENTATION_ITEM('')
SURFACE()
);
#18=(
BOUNDED_SURFACE()
B_SPLINE_SURFACE(2,2,((#420,#421,#422,#423,#424,#425,#426,#427,#428),(#429,
#430,#431,#432,#433,#434,#435,#436,#437),(#438,#439,#440,#441,#442,#443,
#444,#445,#446)),.UNSPECIFIED.,.F.,.T.,.F.)
B_SPLINE_SURFACE_WITH_KNOTS((3,3),(3,2,2,2,3),(-1.55704834871351,-1.34559668136388),
(-3.14159265358979,-1.5707963267949,0.,1.5707963267949,3.14159265358979),
 .UNSPECIFIED.)
GEOMETRIC_REPRESENTATION_ITEM()
RATIONAL_B_SPLINE_SURFACE(((1.,0.707106781186548,1.,0.707106781186548,1.,
0.707106781186548,1.,0.707106781186548,1.),(0.994416228216106,0.703158458293558,
0.994416228216106,0.703158458293558,0.994416228216106,0.703158458293558,
0.994416228216106,0.703158458293558,0.994416228216106),(1.,0.707106781186548,
1.,0.707106781186548,1.,0.707106781186548,1.,0.707106781186548,1.)))
REPRESENTATION_ITEM('')
SURFACE()
);
#19=TOROIDAL_SURFACE('',#226,4.04789863214633,0.5);
#20=TOROIDAL_SURFACE('',#236,4.96958112505259,0.5);
#21=TOROIDAL_SURFACE('',#243,7.,0.5);
#22=CYLINDRICAL_SURFACE('',#225,1.621);
#23=CYLINDRICAL_SURFACE('',#247,7.5);
#24=FACE_OUTER_BOUND('',#36,.T.);
#25=FACE_OUTER_BOUND('',#37,.T.);
#26=FACE_OUTER_BOUND('',#38,.T.);
#27=FACE_OUTER_BOUND('',#39,.T.);
#28=FACE_OUTER_BOUND('',#40,.T.);
#29=FACE_OUTER_BOUND('',#41,.T.);
#30=FACE_OUTER_BOUND('',#42,.T.);
#31=FACE_OUTER_BOUND('',#43,.T.);
#32=FACE_OUTER_BOUND('',#44,.T.);
#33=FACE_OUTER_BOUND('',#45,.T.);
#34=FACE_OUTER_BOUND('',#46,.T.);
#35=FACE_OUTER_BOUND('',#48,.T.);
#36=EDGE_LOOP('',(#127,#128,#129));
#37=EDGE_LOOP('',(#130,#131,#132,#133));
#38=EDGE_LOOP('',(#134,#135,#136,#137));
#39=EDGE_LOOP('',(#138,#139,#140,#141,#142));
#40=EDGE_LOOP('',(#143,#144,#145,#146,#147,#148));
#41=EDGE_LOOP('',(#149,#150,#151,#152));
#42=EDGE_LOOP('',(#153,#154,#155,#156,#157,#158));
#43=EDGE_LOOP('',(#159,#160,#161,#162,#163,#164));
#44=EDGE_LOOP('',(#165,#166,#167,#168,#169,#170));
#45=EDGE_LOOP('',(#171,#172,#173,#174,#175));
#46=EDGE_LOOP('',(#176));
#47=EDGE_LOOP('',(#177));
#48=EDGE_LOOP('',(#178,#179,#180));
#49=LINE('',#326,#55);
#50=LINE('',#331,#56);
#51=LINE('',#334,#57);
#52=LINE('',#348,#58);
#53=LINE('',#408,#59);
#54=LINE('',#418,#60);
#55=VECTOR('',#257,0.8105);
#56=VECTOR('',#262,1.8105);
#57=VECTOR('',#267,1.621);
#58=VECTOR('',#284,4.);
#59=VECTOR('',#303,6.);
#60=VECTOR('',#316,7.5);
#61=CIRCLE('',#221,1.621);
#62=CIRCLE('',#223,2.);
#63=CIRCLE('',#224,1.621);
#64=CIRCLE('',#227,3.91605147325067);
#65=CIRCLE('',#228,0.5);
#66=CIRCLE('',#229,3.55132332998489);
#67=CIRCLE('',#230,3.55132332998489);
#68=CIRCLE('',#232,4.47300582289115);
#69=CIRCLE('',#233,4.47300582289115);
#70=CIRCLE('',#234,10.3);
#71=CIRCLE('',#235,3.5);
#72=CIRCLE('',#237,0.5);
#73=CIRCLE('',#238,4.69223102693997);
#74=CIRCLE('',#239,4.69223102693997);
#75=CIRCLE('',#241,7.27735009811261);
#76=CIRCLE('',#242,7.27735009811261);
#77=CIRCLE('',#244,7.5);
#78=CIRCLE('',#245,0.5);
#79=CIRCLE('',#246,7.5);
#80=CIRCLE('',#248,7.5);
#81=CIRCLE('',#250,16.7021845887055);
#82=VERTEX_POINT('',#323);
#83=VERTEX_POINT('',#325);
#84=VERTEX_POINT('',#328);
#85=VERTEX_POINT('',#330);
#86=VERTEX_POINT('',#336);
#87=VERTEX_POINT('',#338);
#88=VERTEX_POINT('',#340);
#89=VERTEX_POINT('',#344);
#90=VERTEX_POINT('',#345);
#91=VERTEX_POINT('',#394);
#92=VERTEX_POINT('',#398);
#93=VERTEX_POINT('',#400);
#94=VERTEX_POINT('',#404);
#95=VERTEX_POINT('',#405);
#96=VERTEX_POINT('',#410);
#97=VERTEX_POINT('',#411);
#98=VERTEX_POINT('',#416);
#99=VERTEX_POINT('',#447);
#100=EDGE_CURVE('',#82,#82,#61,.T.);
#101=EDGE_CURVE('',#82,#83,#49,.T.);
#102=EDGE_CURVE('',#84,#84,#62,.T.);
#103=EDGE_CURVE('',#84,#85,#50,.T.);
#104=EDGE_CURVE('',#85,#85,#63,.T.);
#105=EDGE_CURVE('',#85,#82,#51,.T.);
#106=EDGE_CURVE('',#86,#86,#64,.T.);
#107=EDGE_CURVE('',#86,#87,#65,.T.);
#108=EDGE_CURVE('',#87,#88,#66,.T.);
#109=EDGE_CURVE('',#88,#87,#67,.T.);
#110=EDGE_CURVE('',#89,#90,#68,.T.);
#111=EDGE_CURVE('',#90,#89,#69,.T.);
#112=EDGE_CURVE('',#90,#88,#52,.T.);
#113=EDGE_CURVE('',#86,#91,#70,.T.);
#114=EDGE_CURVE('',#91,#91,#71,.T.);
#115=EDGE_CURVE('',#89,#92,#72,.T.);
#116=EDGE_CURVE('',#92,#93,#73,.T.);
#117=EDGE_CURVE('',#93,#92,#74,.T.);
#118=EDGE_CURVE('',#94,#95,#75,.T.);
#119=EDGE_CURVE('',#95,#94,#76,.T.);
#120=EDGE_CURVE('',#95,#93,#53,.T.);
#121=EDGE_CURVE('',#96,#97,#77,.T.);
#122=EDGE_CURVE('',#97,#94,#78,.T.);
#123=EDGE_CURVE('',#97,#96,#79,.T.);
#124=EDGE_CURVE('',#98,#98,#80,.T.);
#125=EDGE_CURVE('',#98,#96,#54,.T.);
#126=EDGE_CURVE('',#91,#99,#81,.T.);
#127=ORIENTED_EDGE('',*,*,#100,.T.);
#128=ORIENTED_EDGE('',*,*,#101,.T.);
#129=ORIENTED_EDGE('',*,*,#101,.F.);
#130=ORIENTED_EDGE('',*,*,#102,.F.);
#131=ORIENTED_EDGE('',*,*,#103,.T.);
#132=ORIENTED_EDGE('',*,*,#104,.F.);
#133=ORIENTED_EDGE('',*,*,#103,.F.);
#134=ORIENTED_EDGE('',*,*,#104,.T.);
#135=ORIENTED_EDGE('',*,*,#105,.T.);
#136=ORIENTED_EDGE('',*,*,#100,.F.);
#137=ORIENTED_EDGE('',*,*,#105,.F.);
#138=ORIENTED_EDGE('',*,*,#106,.T.);
#139=ORIENTED_EDGE('',*,*,#107,.T.);
#140=ORIENTED_EDGE('',*,*,#108,.T.);
#141=ORIENTED_EDGE('',*,*,#109,.T.);
#142=ORIENTED_EDGE('',*,*,#107,.F.);
#143=ORIENTED_EDGE('',*,*,#110,.F.);
#144=ORIENTED_EDGE('',*,*,#111,.F.);
#145=ORIENTED_EDGE('',*,*,#112,.T.);
#146=ORIENTED_EDGE('',*,*,#108,.F.);
#147=ORIENTED_EDGE('',*,*,#109,.F.);
#148=ORIENTED_EDGE('',*,*,#112,.F.);
#149=ORIENTED_EDGE('',*,*,#106,.F.);
#150=ORIENTED_EDGE('',*,*,#113,.T.);
#151=ORIENTED_EDGE('',*,*,#114,.T.);
#152=ORIENTED_EDGE('',*,*,#113,.F.);
#153=ORIENTED_EDGE('',*,*,#110,.T.);
#154=ORIENTED_EDGE('',*,*,#111,.T.);
#155=ORIENTED_EDGE('',*,*,#115,.T.);
#156=ORIENTED_EDGE('',*,*,#116,.T.);
#157=ORIENTED_EDGE('',*,*,#117,.T.);
#158=ORIENTED_EDGE('',*,*,#115,.F.);
#159=ORIENTED_EDGE('',*,*,#118,.F.);
#160=ORIENTED_EDGE('',*,*,#119,.F.);
#161=ORIENTED_EDGE('',*,*,#120,.T.);
#162=ORIENTED_EDGE('',*,*,#116,.F.);
#163=ORIENTED_EDGE('',*,*,#117,.F.);
#164=ORIENTED_EDGE('',*,*,#120,.F.);
#165=ORIENTED_EDGE('',*,*,#121,.T.);
#166=ORIENTED_EDGE('',*,*,#122,.T.);
#167=ORIENTED_EDGE('',*,*,#118,.T.);
#168=ORIENTED_EDGE('',*,*,#119,.T.);
#169=ORIENTED_EDGE('',*,*,#122,.F.);
#170=ORIENTED_EDGE('',*,*,#123,.T.);
#171=ORIENTED_EDGE('',*,*,#124,.F.);
#172=ORIENTED_EDGE('',*,*,#125,.T.);
#173=ORIENTED_EDGE('',*,*,#123,.F.);
#174=ORIENTED_EDGE('',*,*,#121,.F.);
#175=ORIENTED_EDGE('',*,*,#125,.F.);
#176=ORIENTED_EDGE('',*,*,#124,.T.);
#177=ORIENTED_EDGE('',*,*,#102,.T.);
#178=ORIENTED_EDGE('',*,*,#114,.F.);
#179=ORIENTED_EDGE('',*,*,#126,.T.);
#180=ORIENTED_EDGE('',*,*,#126,.F.);
#181=CONICAL_SURFACE('',#220,0.8105,1.02974425867665);
#182=CONICAL_SURFACE('',#222,1.8105,0.785398163397448);
#183=CONICAL_SURFACE('',#231,4.,0.117108744566864);
#184=CONICAL_SURFACE('',#240,6.,0.982793723247329);
#185=ADVANCED_FACE('',(#24),#181,.F.);
#186=ADVANCED_FACE('',(#25),#182,.F.);
#187=ADVANCED_FACE('',(#26),#22,.F.);
#188=ADVANCED_FACE('',(#27),#19,.F.);
#189=ADVANCED_FACE('',(#28),#183,.T.);
#190=ADVANCED_FACE('',(#29),#17,.F.);
#191=ADVANCED_FACE('',(#30),#20,.F.);
#192=ADVANCED_FACE('',(#31),#184,.T.);
#193=ADVANCED_FACE('',(#32),#21,.T.);
#194=ADVANCED_FACE('',(#33),#23,.T.);
#195=ADVANCED_FACE('',(#34,#15),#16,.T.);
#196=ADVANCED_FACE('',(#35),#18,.F.);
#197=CLOSED_SHELL('',(#185,#186,#187,#188,#189,#190,#191,#192,#193,#194,
#195,#196));
#198=DERIVED_UNIT_ELEMENT(#201,1.);
#199=DERIVED_UNIT_ELEMENT(#454,-3.);
#200=DIMENSIONAL_EXPONENTS(0.,1.,0.,0.,0.,0.,0.);
#201=(
CONVERSION_BASED_UNIT('gram',#203)
MASS_UNIT()
NAMED_UNIT(#200)
);
#202=(
MASS_UNIT()
NAMED_UNIT(*)
SI_UNIT(.KILO.,.GRAM.)
);
#203=MASS_MEASURE_WITH_UNIT(MASS_MEASURE(0.001),#202);
#204=DERIVED_UNIT((#198,#199));
#205=MEASURE_REPRESENTATION_ITEM('density measure',
POSITIVE_RATIO_MEASURE(1.),#204);
#206=PROPERTY_DEFINITION_REPRESENTATION(#211,#208);
#207=PROPERTY_DEFINITION_REPRESENTATION(#212,#209);
#208=REPRESENTATION('material name',(#210),#451);
#209=REPRESENTATION('density',(#205),#451);
#210=DESCRIPTIVE_REPRESENTATION_ITEM('Generic','Generic');
#211=PROPERTY_DEFINITION('material property','material name',#461);
#212=PROPERTY_DEFINITION('material property','density of part',#461);
#213=DATE_TIME_ROLE('creation_date');
#214=APPLIED_DATE_AND_TIME_ASSIGNMENT(#215,#213,(#461));
#215=DATE_AND_TIME(#216,#217);
#216=CALENDAR_DATE(2022,15,9);
#217=LOCAL_TIME(0,0,0.,#218);
#218=COORDINATED_UNIVERSAL_TIME_OFFSET(0,0,.BEHIND.);
#219=AXIS2_PLACEMENT_3D('',#321,#251,#252);
#220=AXIS2_PLACEMENT_3D('',#322,#253,#254);
#221=AXIS2_PLACEMENT_3D('',#324,#255,#256);
#222=AXIS2_PLACEMENT_3D('',#327,#258,#259);
#223=AXIS2_PLACEMENT_3D('',#329,#260,#261);
#224=AXIS2_PLACEMENT_3D('',#332,#263,#264);
#225=AXIS2_PLACEMENT_3D('',#333,#265,#266);
#226=AXIS2_PLACEMENT_3D('',#335,#268,#269);
#227=AXIS2_PLACEMENT_3D('',#337,#270,#271);
#228=AXIS2_PLACEMENT_3D('',#339,#272,#273);
#229=AXIS2_PLACEMENT_3D('',#341,#274,#275);
#230=AXIS2_PLACEMENT_3D('',#342,#276,#277);
#231=AXIS2_PLACEMENT_3D('',#343,#278,#279);
#232=AXIS2_PLACEMENT_3D('',#346,#280,#281);
#233=AXIS2_PLACEMENT_3D('',#347,#282,#283);
#234=AXIS2_PLACEMENT_3D('',#395,#285,#286);
#235=AXIS2_PLACEMENT_3D('',#396,#287,#288);
#236=AXIS2_PLACEMENT_3D('',#397,#289,#290);
#237=AXIS2_PLACEMENT_3D('',#399,#291,#292);
#238=AXIS2_PLACEMENT_3D('',#401,#293,#294);
#239=AXIS2_PLACEMENT_3D('',#402,#295,#296);
#240=AXIS2_PLACEMENT_3D('',#403,#297,#298);
#241=AXIS2_PLACEMENT_3D('',#406,#299,#300);
#242=AXIS2_PLACEMENT_3D('',#407,#301,#302);
#243=AXIS2_PLACEMENT_3D('',#409,#304,#305);
#244=AXIS2_PLACEMENT_3D('',#412,#306,#307);
#245=AXIS2_PLACEMENT_3D('',#413,#308,#309);
#246=AXIS2_PLACEMENT_3D('',#414,#310,#311);
#247=AXIS2_PLACEMENT_3D('',#415,#312,#313);
#248=AXIS2_PLACEMENT_3D('',#417,#314,#315);
#249=AXIS2_PLACEMENT_3D('',#419,#317,#318);
#250=AXIS2_PLACEMENT_3D('',#448,#319,#320);
#251=DIRECTION('axis',(0.,0.,1.));
#252=DIRECTION('refdir',(1.,0.,0.));
#253=DIRECTION('center_axis',(0.,-1.,0.));
#254=DIRECTION('ref_axis',(1.,0.,0.));
#255=DIRECTION('center_axis',(0.,-1.,0.));
#256=DIRECTION('ref_axis',(1.,0.,0.));
#257=DIRECTION('',(0.857167300702112,0.515038074910054,1.04972719113862E-16));
#258=DIRECTION('center_axis',(0.,-1.,0.));
#259=DIRECTION('ref_axis',(1.,0.,0.));
#260=DIRECTION('center_axis',(0.,1.,0.));
#261=DIRECTION('ref_axis',(1.,0.,0.));
#262=DIRECTION('',(0.707106781186547,0.707106781186547,8.65956056235493E-17));
#263=DIRECTION('center_axis',(0.,-1.,0.));
#264=DIRECTION('ref_axis',(1.,0.,0.));
#265=DIRECTION('center_axis',(0.,-1.,0.));
#266=DIRECTION('ref_axis',(1.,0.,0.));
#267=DIRECTION('',(0.,1.,0.));
#268=DIRECTION('center_axis',(0.,-1.,0.));
#269=DIRECTION('ref_axis',(0.,0.,-1.));
#270=DIRECTION('center_axis',(0.,-1.,0.));
#271=DIRECTION('ref_axis',(1.,0.,0.));
#272=DIRECTION('center_axis',(-1.,0.,-1.22464679914735E-16));
#273=DIRECTION('ref_axis',(-1.22464679914735E-16,0.,1.));
#274=DIRECTION('center_axis',(0.,1.,0.));
#275=DIRECTION('ref_axis',(1.,0.,6.12323399573677E-17));
#276=DIRECTION('center_axis',(0.,1.,0.));
#277=DIRECTION('ref_axis',(1.,0.,6.12323399573677E-17));
#278=DIRECTION('center_axis',(0.,-1.,0.));
#279=DIRECTION('ref_axis',(-1.,0.,0.));
#280=DIRECTION('center_axis',(0.,-1.,0.));
#281=DIRECTION('ref_axis',(1.,0.,6.12323399573677E-17));
#282=DIRECTION('center_axis',(0.,-1.,0.));
#283=DIRECTION('ref_axis',(1.,0.,6.12323399573677E-17));
#284=DIRECTION('',(-0.116841247567397,0.993150604322876,-1.43089259841796E-17));
#285=DIRECTION('center_axis',(-1.,0.,-1.22464679914735E-16));
#286=DIRECTION('ref_axis',(-1.22464679914735E-16,0.,1.));
#287=DIRECTION('center_axis',(0.,-1.,0.));
#288=DIRECTION('ref_axis',(1.,0.,0.));
#289=DIRECTION('center_axis',(0.,-1.,0.));
#290=DIRECTION('ref_axis',(0.,0.,-1.));
#291=DIRECTION('center_axis',(-1.,0.,-1.22464679914735E-16));
#292=DIRECTION('ref_axis',(-1.22464679914735E-16,0.,1.));
#293=DIRECTION('center_axis',(0.,1.,0.));
#294=DIRECTION('ref_axis',(1.,0.,6.12323399573676E-17));
#295=DIRECTION('center_axis',(0.,1.,0.));
#296=DIRECTION('ref_axis',(1.,0.,6.12323399573676E-17));
#297=DIRECTION('center_axis',(0.,-1.,0.));
#298=DIRECTION('ref_axis',(-1.,0.,0.));
#299=DIRECTION('center_axis',(0.,-1.,0.));
#300=DIRECTION('ref_axis',(1.,0.,6.12323399573677E-17));
#301=DIRECTION('center_axis',(0.,-1.,0.));
#302=DIRECTION('ref_axis',(1.,0.,6.12323399573677E-17));
#303=DIRECTION('',(-0.832050294337844,0.554700196225229,-1.01896772969045E-16));
#304=DIRECTION('center_axis',(0.,-1.,0.));
#305=DIRECTION('ref_axis',(0.,0.,-1.));
#306=DIRECTION('center_axis',(0.,1.,0.));
#307=DIRECTION('ref_axis',(1.,0.,0.));
#308=DIRECTION('center_axis',(-1.,0.,-1.22464679914735E-16));
#309=DIRECTION('ref_axis',(-1.22464679914735E-16,0.,1.));
#310=DIRECTION('center_axis',(0.,1.,0.));
#311=DIRECTION('ref_axis',(1.,0.,0.));
#312=DIRECTION('center_axis',(0.,-1.,0.));
#313=DIRECTION('ref_axis',(-1.,0.,0.));
#314=DIRECTION('center_axis',(0.,-1.,0.));
#315=DIRECTION('ref_axis',(1.,0.,0.));
#316=DIRECTION('',(0.,1.,0.));
#317=DIRECTION('center_axis',(0.,-1.,0.));
#318=DIRECTION('ref_axis',(0.,0.,-1.));
#319=DIRECTION('center_axis',(-1.,0.,-1.22464679914735E-16));
#320=DIRECTION('ref_axis',(-1.22464679914735E-16,0.,1.));
#321=CARTESIAN_POINT('',(0.,0.,0.));
#322=CARTESIAN_POINT('Origin',(0.,12.2869975317218,0.));
#323=CARTESIAN_POINT('',(-1.621,11.8,-1.98515246141786E-16));
#324=CARTESIAN_POINT('Origin',(0.,11.8,0.));
#325=CARTESIAN_POINT('',(0.,12.7739950634437,0.));
#326=CARTESIAN_POINT('',(-0.8105,12.2869975317218,-9.9257623070893E-17));
#327=CARTESIAN_POINT('Origin',(0.,0.1895,0.));
#328=CARTESIAN_POINT('',(-2.,-1.38777878078145E-16,-2.44929359829471E-16));
#329=CARTESIAN_POINT('Origin',(0.,0.,0.));
#330=CARTESIAN_POINT('',(-1.621,0.379,-1.98515246141786E-16));
#331=CARTESIAN_POINT('',(-1.8105,0.1895,-2.21722302985628E-16));
#332=CARTESIAN_POINT('Origin',(0.,0.379,0.));
#333=CARTESIAN_POINT('Origin',(0.,5.9,0.));
#334=CARTESIAN_POINT('',(-1.621,5.9,-1.98515246141786E-16));
#335=CARTESIAN_POINT('Origin',(0.,12.1221723189121,0.));
#336=CARTESIAN_POINT('',(-4.79577990201271E-16,12.604475467037,3.91605147325067));
#337=CARTESIAN_POINT('Origin',(0.,12.604475467037,0.));
#338=CARTESIAN_POINT('',(-4.34911674880332E-16,12.0637516951284,3.55132332998489));
#339=CARTESIAN_POINT('Origin',(-4.95724610313095E-16,12.1221723189121,4.04789863214633));
#340=CARTESIAN_POINT('',(3.55132332998489,12.0637516951284,4.34911674880332E-16));
#341=CARTESIAN_POINT('Origin',(0.,12.0637516951284,2.17455837440166E-16));
#342=CARTESIAN_POINT('Origin',(0.,12.0637516951284,2.17455837440166E-16));
#343=CARTESIAN_POINT('Origin',(0.,8.25,0.));
#344=CARTESIAN_POINT('',(-5.47785226357112E-16,4.22945050542524,4.47300582289115));
#345=CARTESIAN_POINT('',(4.47300582289115,4.22945050542524,5.47785226357112E-16));
#346=CARTESIAN_POINT('Origin',(0.,4.22945050542524,2.73892613178556E-16));
#347=CARTESIAN_POINT('Origin',(0.,4.22945050542524,2.73892613178556E-16));
#348=CARTESIAN_POINT('',(4.,8.25,4.89858719658941E-16));
#349=CARTESIAN_POINT('Ctrl Pts',(0.,32.5798406368178,3.5));
#350=CARTESIAN_POINT('Ctrl Pts',(-3.5,32.5798406368178,3.5));
#351=CARTESIAN_POINT('Ctrl Pts',(-3.5,32.5798406368178,0.));
#352=CARTESIAN_POINT('Ctrl Pts',(-3.5,32.5798406368178,-3.5));
#353=CARTESIAN_POINT('Ctrl Pts',(0.,32.5798406368178,-3.5));
#354=CARTESIAN_POINT('Ctrl Pts',(3.5,32.5798406368178,-3.5));
#355=CARTESIAN_POINT('Ctrl Pts',(3.5,32.5798406368178,0.));
#356=CARTESIAN_POINT('Ctrl Pts',(3.5,32.5798406368178,3.5));
#357=CARTESIAN_POINT('Ctrl Pts',(0.,32.5798406368178,3.5));
#358=CARTESIAN_POINT('Ctrl Pts',(0.,30.7859906836587,11.330482866478));
#359=CARTESIAN_POINT('Ctrl Pts',(-11.330482866478,30.7859906836587,11.330482866478));
#360=CARTESIAN_POINT('Ctrl Pts',(-11.330482866478,30.7859906836587,0.));
#361=CARTESIAN_POINT('Ctrl Pts',(-11.330482866478,30.7859906836587,-11.330482866478));
#362=CARTESIAN_POINT('Ctrl Pts',(0.,30.7859906836587,-11.330482866478));
#363=CARTESIAN_POINT('Ctrl Pts',(11.330482866478,30.7859906836587,-11.330482866478));
#364=CARTESIAN_POINT('Ctrl Pts',(11.330482866478,30.7859906836587,0.));
#365=CARTESIAN_POINT('Ctrl Pts',(11.330482866478,30.7859906836587,11.330482866478));
#366=CARTESIAN_POINT('Ctrl Pts',(0.,30.7859906836587,11.330482866478));
#367=CARTESIAN_POINT('Ctrl Pts',(0.,22.7544045553627,11.4977665788315));
#368=CARTESIAN_POINT('Ctrl Pts',(-11.4977665788315,22.7544045553627,11.4977665788315));
#369=CARTESIAN_POINT('Ctrl Pts',(-11.4977665788315,22.7544045553627,0.));
#370=CARTESIAN_POINT('Ctrl Pts',(-11.4977665788315,22.7544045553627,-11.4977665788315));
#371=CARTESIAN_POINT('Ctrl Pts',(0.,22.7544045553627,-11.4977665788315));
#372=CARTESIAN_POINT('Ctrl Pts',(11.4977665788315,22.7544045553627,-11.4977665788315));
#373=CARTESIAN_POINT('Ctrl Pts',(11.4977665788315,22.7544045553627,0.));
#374=CARTESIAN_POINT('Ctrl Pts',(11.4977665788315,22.7544045553627,11.4977665788315));
#375=CARTESIAN_POINT('Ctrl Pts',(0.,22.7544045553627,11.4977665788315));
#376=CARTESIAN_POINT('Ctrl Pts',(0.,14.7228184270668,11.6650502911849));
#377=CARTESIAN_POINT('Ctrl Pts',(-11.6650502911849,14.7228184270668,11.6650502911849));
#378=CARTESIAN_POINT('Ctrl Pts',(-11.6650502911849,14.7228184270668,0.));
#379=CARTESIAN_POINT('Ctrl Pts',(-11.6650502911849,14.7228184270668,-11.6650502911849));
#380=CARTESIAN_POINT('Ctrl Pts',(0.,14.7228184270668,-11.6650502911849));
#381=CARTESIAN_POINT('Ctrl Pts',(11.6650502911849,14.7228184270668,-11.6650502911849));
#382=CARTESIAN_POINT('Ctrl Pts',(11.6650502911849,14.7228184270668,0.));
#383=CARTESIAN_POINT('Ctrl Pts',(11.6650502911849,14.7228184270668,11.6650502911849));
#384=CARTESIAN_POINT('Ctrl Pts',(0.,14.7228184270668,11.6650502911849));
#385=CARTESIAN_POINT('Ctrl Pts',(0.,12.604475467037,3.91605147325067));
#386=CARTESIAN_POINT('Ctrl Pts',(-3.91605147325066,12.604475467037,3.91605147325066));
#387=CARTESIAN_POINT('Ctrl Pts',(-3.91605147325067,12.604475467037,0.));
#388=CARTESIAN_POINT('Ctrl Pts',(-3.91605147325066,12.604475467037,-3.91605147325066));
#389=CARTESIAN_POINT('Ctrl Pts',(0.,12.604475467037,-3.91605147325067));
#390=CARTESIAN_POINT('Ctrl Pts',(3.91605147325066,12.604475467037,-3.91605147325066));
#391=CARTESIAN_POINT('Ctrl Pts',(3.91605147325067,12.604475467037,0.));
#392=CARTESIAN_POINT('Ctrl Pts',(3.91605147325066,12.604475467037,3.91605147325066));
#393=CARTESIAN_POINT('Ctrl Pts',(0.,12.604475467037,3.91605147325067));
#394=CARTESIAN_POINT('',(-4.28626379701574E-16,32.5798406368178,3.5));
#395=CARTESIAN_POINT('Origin',(-1.46957615897683E-16,22.5399203184089,1.2));
#396=CARTESIAN_POINT('Origin',(0.,32.5798406368178,0.));
#397=CARTESIAN_POINT('Origin',(0.,4.28787112920894,0.));
#398=CARTESIAN_POINT('',(-5.74632570800194E-16,3.87184598204002,4.69223102693997));
#399=CARTESIAN_POINT('Origin',(-6.08598161789875E-16,4.28787112920894,4.96958112505259));
#400=CARTESIAN_POINT('',(4.69223102693997,3.87184598204002,5.74632570800193E-16));
#401=CARTESIAN_POINT('Origin',(0.,3.87184598204002,2.87316285400097E-16));
#402=CARTESIAN_POINT('Origin',(0.,3.87184598204002,2.87316285400097E-16));
#403=CARTESIAN_POINT('Origin',(0.,3.,0.));
#404=CARTESIAN_POINT('',(-8.91218350392829E-16,2.14843326792492,7.27735009811261));
#405=CARTESIAN_POINT('',(7.27735009811262,2.14843326792492,8.91218350392829E-16));
#406=CARTESIAN_POINT('Origin',(0.,2.14843326792492,4.45609175196415E-16));
#407=CARTESIAN_POINT('Origin',(0.,2.14843326792492,4.45609175196415E-16));
#408=CARTESIAN_POINT('',(6.,3.,7.34788079488412E-16));
#409=CARTESIAN_POINT('Origin',(0.,1.732408120756,0.));
#410=CARTESIAN_POINT('',(7.5,1.732408120756,9.18485099360515E-16));
#411=CARTESIAN_POINT('',(-9.18485099360515E-16,1.732408120756,7.5));
#412=CARTESIAN_POINT('Origin',(0.,1.732408120756,0.));
#413=CARTESIAN_POINT('Origin',(-8.57252759403147E-16,1.732408120756,7.));
#414=CARTESIAN_POINT('Origin',(0.,1.732408120756,0.));
#415=CARTESIAN_POINT('Origin',(0.,1.,0.));
#416=CARTESIAN_POINT('',(7.5,0.,9.18485099360515E-16));
#417=CARTESIAN_POINT('Origin',(0.,0.,0.));
#418=CARTESIAN_POINT('',(7.5,1.,9.18485099360515E-16));
#419=CARTESIAN_POINT('Origin',(0.,0.,0.));
#420=CARTESIAN_POINT('Ctrl Pts',(0.,33.,-1.00613961606655E-15));
#421=CARTESIAN_POINT('Ctrl Pts',(1.00613961606655E-15,33.,-1.00613961606655E-15));
#422=CARTESIAN_POINT('Ctrl Pts',(1.00613961606655E-15,33.,0.));
#423=CARTESIAN_POINT('Ctrl Pts',(1.00613961606655E-15,33.,1.00613961606655E-15));
#424=CARTESIAN_POINT('Ctrl Pts',(0.,33.,1.00613961606655E-15));
#425=CARTESIAN_POINT('Ctrl Pts',(-1.00613961606655E-15,33.,1.00613961606655E-15));
#426=CARTESIAN_POINT('Ctrl Pts',(-1.00613961606655E-15,33.,0.));
#427=CARTESIAN_POINT('Ctrl Pts',(-1.00613961606655E-15,33.,-1.00613961606655E-15));
#428=CARTESIAN_POINT('Ctrl Pts',(0.,33.,-1.00613961606655E-15));
#429=CARTESIAN_POINT('Ctrl Pts',(0.,32.9756330060345,1.7722939784479));
#430=CARTESIAN_POINT('Ctrl Pts',(-1.7722939784479,32.9756330060345,1.7722939784479));
#431=CARTESIAN_POINT('Ctrl Pts',(-1.7722939784479,32.9756330060345,0.));
#432=CARTESIAN_POINT('Ctrl Pts',(-1.7722939784479,32.9756330060345,-1.7722939784479));
#433=CARTESIAN_POINT('Ctrl Pts',(0.,32.9756330060345,-1.7722939784479));
#434=CARTESIAN_POINT('Ctrl Pts',(1.7722939784479,32.9756330060345,-1.7722939784479));
#435=CARTESIAN_POINT('Ctrl Pts',(1.7722939784479,32.9756330060345,0.));
#436=CARTESIAN_POINT('Ctrl Pts',(1.7722939784479,32.9756330060345,1.7722939784479));
#437=CARTESIAN_POINT('Ctrl Pts',(0.,32.9756330060345,1.7722939784479));
#438=CARTESIAN_POINT('Ctrl Pts',(0.,32.5798406368178,3.5));
#439=CARTESIAN_POINT('Ctrl Pts',(-3.5,32.5798406368178,3.5));
#440=CARTESIAN_POINT('Ctrl Pts',(-3.5,32.5798406368178,0.));
#441=CARTESIAN_POINT('Ctrl Pts',(-3.5,32.5798406368178,-3.5));
#442=CARTESIAN_POINT('Ctrl Pts',(0.,32.5798406368178,-3.5));
#443=CARTESIAN_POINT('Ctrl Pts',(3.5,32.5798406368178,-3.5));
#444=CARTESIAN_POINT('Ctrl Pts',(3.5,32.5798406368178,0.));
#445=CARTESIAN_POINT('Ctrl Pts',(3.5,32.5798406368178,3.5));
#446=CARTESIAN_POINT('Ctrl Pts',(0.,32.5798406368178,3.5));
#447=CARTESIAN_POINT('',(0.,33.,0.));
#448=CARTESIAN_POINT('Origin',(2.81196092231942E-17,16.299393800511,-0.229614034371152));
#449=UNCERTAINTY_MEASURE_WITH_UNIT(LENGTH_MEASURE(0.01),#453,
'DISTANCE_ACCURACY_VALUE',
'Maximum model space distance between geometric entities at asserted c
onnectivities');
#450=UNCERTAINTY_MEASURE_WITH_UNIT(LENGTH_MEASURE(0.01),#453,
'DISTANCE_ACCURACY_VALUE',
'Maximum model space distance between geometric entities at asserted c
onnectivities');
#451=(
GEOMETRIC_REPRESENTATION_CONTEXT(3)
GLOBAL_UNCERTAINTY_ASSIGNED_CONTEXT((#449))
GLOBAL_UNIT_ASSIGNED_CONTEXT((#453,#455,#456))
REPRESENTATION_CONTEXT('','3D')
);
#452=(
GEOMETRIC_REPRESENTATION_CONTEXT(3)
GLOBAL_UNCERTAINTY_ASSIGNED_CONTEXT((#450))
GLOBAL_UNIT_ASSIGNED_CONTEXT((#453,#455,#456))
REPRESENTATION_CONTEXT('','3D')
);
#453=(
LENGTH_UNIT()
NAMED_UNIT(*)
SI_UNIT(.MILLI.,.METRE.)
);
#454=(
LENGTH_UNIT()
NAMED_UNIT(*)
SI_UNIT(.CENTI.,.METRE.)
);
#455=(
NAMED_UNIT(*)
PLANE_ANGLE_UNIT()
SI_UNIT($,.RADIAN.)
);
#456=(
NAMED_UNIT(*)
SI_UNIT($,.STERADIAN.)
SOLID_ANGLE_UNIT()
);
#457=SHAPE_DEFINITION_REPRESENTATION(#458,#459);
#458=PRODUCT_DEFINITION_SHAPE('',$,#461);
#459=SHAPE_REPRESENTATION('',(#219),#451);
#460=PRODUCT_DEFINITION_CONTEXT('part definition',#465,'design');
#461=PRODUCT_DEFINITION('GZ-NORD-1','GZ-NORD-1',#462,#460);
#462=PRODUCT_DEFINITION_FORMATION('',$,#467);
#463=PRODUCT_RELATED_PRODUCT_CATEGORY('GZ-NORD-1','GZ-NORD-1',(#467));
#464=APPLICATION_PROTOCOL_DEFINITION('international standard',
'automotive_design',2009,#465);
#465=APPLICATION_CONTEXT(
'Core Data for Automotive Mechanical Design Process');
#466=PRODUCT_CONTEXT('part definition',#465,'mechanical');
#467=PRODUCT('GZ-NORD-1','GZ-NORD-1',$,(#466));
#468=PRESENTATION_STYLE_ASSIGNMENT((#469));
#469=SURFACE_STYLE_USAGE(.BOTH.,#472);
#470=SURFACE_STYLE_RENDERING_WITH_PROPERTIES($,#476,(#471));
#471=SURFACE_STYLE_TRANSPARENT(0.);
#472=SURFACE_SIDE_STYLE('',(#473,#470));
#473=SURFACE_STYLE_FILL_AREA(#474);
#474=FILL_AREA_STYLE('',(#475));
#475=FILL_AREA_STYLE_COLOUR('',#476);
#476=COLOUR_RGB('',0.749019607843137,0.749019607843137,0.749019607843137);
ENDSEC;
END-ISO-10303-21;
