ISO-10303-21;
HEADER;
/* Generated by software containing ST-Developer
 * from STEP Tools, Inc. (www.steptools.com) 
 */

FILE_DESCRIPTION(
/* description */ (''),
/* implementation_level */ '2;1');

FILE_NAME(
/* name */ 
'D:\\$Workingspace\\Designs\\Meblowka\\uchwyty\\GZ-SPOT\\GZ-SPOT.stp',
/* time_stamp */ '2021-11-25T12:41:58+01:00',
/* author */ ('tomaszw'),
/* organization */ (''),
/* preprocessor_version */ 'ST-DEVELOPER v18.1',
/* originating_system */ 'Autodesk Inventor 2021',
/* authorisation */ '');

FILE_SCHEMA (('AUTOMOTIVE_DESIGN { 1 0 10303 214 3 1 1 }'));
ENDSEC;

DATA;
#10=MECHANICAL_DESIGN_GEOMETRIC_PRESENTATION_REPRESENTATION('',(#13),#358);
#11=SHAPE_REPRESENTATION_RELATIONSHIP('SRR','None',#365,#12);
#12=ADVANCED_BREP_SHAPE_REPRESENTATION('',(#14),#357);
#13=STYLED_ITEM('',(#374),#14);
#14=MANIFOLD_SOLID_BREP('Solid1',#188);
#15=CONICAL_SURFACE('',#220,0.8105,1.02974425867665);
#16=CONICAL_SURFACE('',#222,1.8105,0.785398163397448);
#17=FACE_BOUND('',#62,.T.);
#18=FACE_BOUND('',#70,.T.);
#19=FACE_BOUND('',#73,.T.);
#20=FACE_BOUND('',#76,.T.);
#21=PLANE('',#214);
#22=PLANE('',#219);
#23=PLANE('',#228);
#24=PLANE('',#232);
#25=PLANE('',#236);
#26=LINE('',#313,#33);
#27=LINE('',#327,#34);
#28=LINE('',#332,#35);
#29=LINE('',#335,#36);
#30=LINE('',#339,#37);
#31=LINE('',#345,#38);
#32=LINE('',#353,#39);
#33=VECTOR('',#249,12.);
#34=VECTOR('',#268,0.8105);
#35=VECTOR('',#273,1.8105);
#36=VECTOR('',#278,1.621);
#37=VECTOR('',#283,6.8);
#38=VECTOR('',#290,5.8);
#39=VECTOR('',#301,3.5);
#40=CYLINDRICAL_SURFACE('',#212,12.);
#41=CYLINDRICAL_SURFACE('',#225,1.621);
#42=CYLINDRICAL_SURFACE('',#226,6.8);
#43=CYLINDRICAL_SURFACE('',#230,5.8);
#44=CYLINDRICAL_SURFACE('',#234,3.5);
#45=FACE_OUTER_BOUND('',#59,.T.);
#46=FACE_OUTER_BOUND('',#60,.T.);
#47=FACE_OUTER_BOUND('',#61,.T.);
#48=FACE_OUTER_BOUND('',#63,.T.);
#49=FACE_OUTER_BOUND('',#64,.T.);
#50=FACE_OUTER_BOUND('',#65,.T.);
#51=FACE_OUTER_BOUND('',#66,.T.);
#52=FACE_OUTER_BOUND('',#67,.T.);
#53=FACE_OUTER_BOUND('',#68,.T.);
#54=FACE_OUTER_BOUND('',#69,.T.);
#55=FACE_OUTER_BOUND('',#71,.T.);
#56=FACE_OUTER_BOUND('',#72,.T.);
#57=FACE_OUTER_BOUND('',#74,.T.);
#58=FACE_OUTER_BOUND('',#75,.T.);
#59=EDGE_LOOP('',(#128,#129,#130,#131));
#60=EDGE_LOOP('',(#132,#133,#134,#135));
#61=EDGE_LOOP('',(#136));
#62=EDGE_LOOP('',(#137));
#63=EDGE_LOOP('',(#138,#139,#140,#141));
#64=EDGE_LOOP('',(#142));
#65=EDGE_LOOP('',(#143,#144,#145));
#66=EDGE_LOOP('',(#146,#147,#148,#149));
#67=EDGE_LOOP('',(#150,#151,#152,#153));
#68=EDGE_LOOP('',(#154,#155,#156,#157));
#69=EDGE_LOOP('',(#158));
#70=EDGE_LOOP('',(#159));
#71=EDGE_LOOP('',(#160,#161,#162,#163));
#72=EDGE_LOOP('',(#164));
#73=EDGE_LOOP('',(#165));
#74=EDGE_LOOP('',(#166,#167,#168,#169));
#75=EDGE_LOOP('',(#170));
#76=EDGE_LOOP('',(#171));
#77=CIRCLE('',#209,11.8);
#78=CIRCLE('',#210,0.2);
#79=CIRCLE('',#211,12.);
#80=CIRCLE('',#213,12.);
#81=CIRCLE('',#215,6.8);
#82=CIRCLE('',#217,0.2);
#83=CIRCLE('',#218,11.8);
#84=CIRCLE('',#221,1.621);
#85=CIRCLE('',#223,2.);
#86=CIRCLE('',#224,1.621);
#87=CIRCLE('',#227,6.8);
#88=CIRCLE('',#229,5.8);
#89=CIRCLE('',#231,5.8);
#90=CIRCLE('',#233,3.5);
#91=CIRCLE('',#235,3.5);
#92=VERTEX_POINT('',#306);
#93=VERTEX_POINT('',#308);
#94=VERTEX_POINT('',#312);
#95=VERTEX_POINT('',#316);
#96=VERTEX_POINT('',#319);
#97=VERTEX_POINT('',#324);
#98=VERTEX_POINT('',#326);
#99=VERTEX_POINT('',#329);
#100=VERTEX_POINT('',#331);
#101=VERTEX_POINT('',#337);
#102=VERTEX_POINT('',#341);
#103=VERTEX_POINT('',#344);
#104=VERTEX_POINT('',#348);
#105=VERTEX_POINT('',#351);
#106=EDGE_CURVE('',#92,#92,#77,.T.);
#107=EDGE_CURVE('',#92,#93,#78,.T.);
#108=EDGE_CURVE('',#93,#93,#79,.T.);
#109=EDGE_CURVE('',#93,#94,#26,.T.);
#110=EDGE_CURVE('',#94,#94,#80,.T.);
#111=EDGE_CURVE('',#95,#95,#81,.T.);
#112=EDGE_CURVE('',#94,#96,#82,.T.);
#113=EDGE_CURVE('',#96,#96,#83,.T.);
#114=EDGE_CURVE('',#97,#97,#84,.T.);
#115=EDGE_CURVE('',#97,#98,#27,.T.);
#116=EDGE_CURVE('',#99,#99,#85,.T.);
#117=EDGE_CURVE('',#99,#100,#28,.T.);
#118=EDGE_CURVE('',#100,#100,#86,.T.);
#119=EDGE_CURVE('',#100,#97,#29,.T.);
#120=EDGE_CURVE('',#101,#101,#87,.T.);
#121=EDGE_CURVE('',#101,#95,#30,.T.);
#122=EDGE_CURVE('',#102,#102,#88,.T.);
#123=EDGE_CURVE('',#102,#103,#31,.T.);
#124=EDGE_CURVE('',#103,#103,#89,.T.);
#125=EDGE_CURVE('',#104,#104,#90,.T.);
#126=EDGE_CURVE('',#105,#105,#91,.T.);
#127=EDGE_CURVE('',#105,#104,#32,.T.);
#128=ORIENTED_EDGE('',*,*,#106,.T.);
#129=ORIENTED_EDGE('',*,*,#107,.T.);
#130=ORIENTED_EDGE('',*,*,#108,.T.);
#131=ORIENTED_EDGE('',*,*,#107,.F.);
#132=ORIENTED_EDGE('',*,*,#108,.F.);
#133=ORIENTED_EDGE('',*,*,#109,.T.);
#134=ORIENTED_EDGE('',*,*,#110,.F.);
#135=ORIENTED_EDGE('',*,*,#109,.F.);
#136=ORIENTED_EDGE('',*,*,#106,.F.);
#137=ORIENTED_EDGE('',*,*,#111,.F.);
#138=ORIENTED_EDGE('',*,*,#110,.T.);
#139=ORIENTED_EDGE('',*,*,#112,.T.);
#140=ORIENTED_EDGE('',*,*,#113,.T.);
#141=ORIENTED_EDGE('',*,*,#112,.F.);
#142=ORIENTED_EDGE('',*,*,#113,.F.);
#143=ORIENTED_EDGE('',*,*,#114,.T.);
#144=ORIENTED_EDGE('',*,*,#115,.T.);
#145=ORIENTED_EDGE('',*,*,#115,.F.);
#146=ORIENTED_EDGE('',*,*,#116,.F.);
#147=ORIENTED_EDGE('',*,*,#117,.T.);
#148=ORIENTED_EDGE('',*,*,#118,.F.);
#149=ORIENTED_EDGE('',*,*,#117,.F.);
#150=ORIENTED_EDGE('',*,*,#118,.T.);
#151=ORIENTED_EDGE('',*,*,#119,.T.);
#152=ORIENTED_EDGE('',*,*,#114,.F.);
#153=ORIENTED_EDGE('',*,*,#119,.F.);
#154=ORIENTED_EDGE('',*,*,#120,.F.);
#155=ORIENTED_EDGE('',*,*,#121,.T.);
#156=ORIENTED_EDGE('',*,*,#111,.T.);
#157=ORIENTED_EDGE('',*,*,#121,.F.);
#158=ORIENTED_EDGE('',*,*,#120,.T.);
#159=ORIENTED_EDGE('',*,*,#122,.F.);
#160=ORIENTED_EDGE('',*,*,#122,.T.);
#161=ORIENTED_EDGE('',*,*,#123,.T.);
#162=ORIENTED_EDGE('',*,*,#124,.F.);
#163=ORIENTED_EDGE('',*,*,#123,.F.);
#164=ORIENTED_EDGE('',*,*,#124,.T.);
#165=ORIENTED_EDGE('',*,*,#125,.F.);
#166=ORIENTED_EDGE('',*,*,#126,.F.);
#167=ORIENTED_EDGE('',*,*,#127,.T.);
#168=ORIENTED_EDGE('',*,*,#125,.T.);
#169=ORIENTED_EDGE('',*,*,#127,.F.);
#170=ORIENTED_EDGE('',*,*,#126,.T.);
#171=ORIENTED_EDGE('',*,*,#116,.T.);
#172=TOROIDAL_SURFACE('',#208,11.8,0.2);
#173=TOROIDAL_SURFACE('',#216,11.8,0.2);
#174=ADVANCED_FACE('',(#45),#172,.T.);
#175=ADVANCED_FACE('',(#46),#40,.T.);
#176=ADVANCED_FACE('',(#47,#17),#21,.T.);
#177=ADVANCED_FACE('',(#48),#173,.T.);
#178=ADVANCED_FACE('',(#49),#22,.T.);
#179=ADVANCED_FACE('',(#50),#15,.F.);
#180=ADVANCED_FACE('',(#51),#16,.F.);
#181=ADVANCED_FACE('',(#52),#41,.F.);
#182=ADVANCED_FACE('',(#53),#42,.T.);
#183=ADVANCED_FACE('',(#54,#18),#23,.T.);
#184=ADVANCED_FACE('',(#55),#43,.F.);
#185=ADVANCED_FACE('',(#56,#19),#24,.T.);
#186=ADVANCED_FACE('',(#57),#44,.T.);
#187=ADVANCED_FACE('',(#58,#20),#25,.T.);
#188=CLOSED_SHELL('',(#174,#175,#176,#177,#178,#179,#180,#181,#182,#183,
#184,#185,#186,#187));
#189=DERIVED_UNIT_ELEMENT(#191,1.);
#190=DERIVED_UNIT_ELEMENT(#360,-3.);
#191=(
MASS_UNIT()
NAMED_UNIT(*)
SI_UNIT($,.GRAM.)
);
#192=DERIVED_UNIT((#189,#190));
#193=MEASURE_REPRESENTATION_ITEM('density measure',
POSITIVE_RATIO_MEASURE(1.),#192);
#194=PROPERTY_DEFINITION_REPRESENTATION(#199,#196);
#195=PROPERTY_DEFINITION_REPRESENTATION(#200,#197);
#196=REPRESENTATION('material name',(#198),#357);
#197=REPRESENTATION('density',(#193),#357);
#198=DESCRIPTIVE_REPRESENTATION_ITEM('Generic','Generic');
#199=PROPERTY_DEFINITION('material property','material name',#367);
#200=PROPERTY_DEFINITION('material property','density of part',#367);
#201=DATE_TIME_ROLE('creation_date');
#202=APPLIED_DATE_AND_TIME_ASSIGNMENT(#203,#201,(#367));
#203=DATE_AND_TIME(#204,#205);
#204=CALENDAR_DATE(2021,21,10);
#205=LOCAL_TIME(0,0,0.,#206);
#206=COORDINATED_UNIVERSAL_TIME_OFFSET(0,0,.BEHIND.);
#207=AXIS2_PLACEMENT_3D('placement',#304,#237,#238);
#208=AXIS2_PLACEMENT_3D('',#305,#239,#240);
#209=AXIS2_PLACEMENT_3D('',#307,#241,#242);
#210=AXIS2_PLACEMENT_3D('',#309,#243,#244);
#211=AXIS2_PLACEMENT_3D('',#310,#245,#246);
#212=AXIS2_PLACEMENT_3D('',#311,#247,#248);
#213=AXIS2_PLACEMENT_3D('',#314,#250,#251);
#214=AXIS2_PLACEMENT_3D('',#315,#252,#253);
#215=AXIS2_PLACEMENT_3D('',#317,#254,#255);
#216=AXIS2_PLACEMENT_3D('',#318,#256,#257);
#217=AXIS2_PLACEMENT_3D('',#320,#258,#259);
#218=AXIS2_PLACEMENT_3D('',#321,#260,#261);
#219=AXIS2_PLACEMENT_3D('',#322,#262,#263);
#220=AXIS2_PLACEMENT_3D('',#323,#264,#265);
#221=AXIS2_PLACEMENT_3D('',#325,#266,#267);
#222=AXIS2_PLACEMENT_3D('',#328,#269,#270);
#223=AXIS2_PLACEMENT_3D('',#330,#271,#272);
#224=AXIS2_PLACEMENT_3D('',#333,#274,#275);
#225=AXIS2_PLACEMENT_3D('',#334,#276,#277);
#226=AXIS2_PLACEMENT_3D('',#336,#279,#280);
#227=AXIS2_PLACEMENT_3D('',#338,#281,#282);
#228=AXIS2_PLACEMENT_3D('',#340,#284,#285);
#229=AXIS2_PLACEMENT_3D('',#342,#286,#287);
#230=AXIS2_PLACEMENT_3D('',#343,#288,#289);
#231=AXIS2_PLACEMENT_3D('',#346,#291,#292);
#232=AXIS2_PLACEMENT_3D('',#347,#293,#294);
#233=AXIS2_PLACEMENT_3D('',#349,#295,#296);
#234=AXIS2_PLACEMENT_3D('',#350,#297,#298);
#235=AXIS2_PLACEMENT_3D('',#352,#299,#300);
#236=AXIS2_PLACEMENT_3D('',#354,#302,#303);
#237=DIRECTION('axis',(0.,0.,1.));
#238=DIRECTION('refdir',(1.,0.,0.));
#239=DIRECTION('center_axis',(0.,-1.,-1.49302332035069E-34));
#240=DIRECTION('ref_axis',(0.,0.,-1.));
#241=DIRECTION('center_axis',(0.,1.,1.49302332035069E-34));
#242=DIRECTION('ref_axis',(6.12323399573677E-17,-1.49302332035069E-34,1.));
#243=DIRECTION('center_axis',(-1.,1.82842623031983E-50,-1.22464679914735E-16));
#244=DIRECTION('ref_axis',(-1.22464679914735E-16,0.,1.));
#245=DIRECTION('center_axis',(0.,-1.,-1.49302332035069E-34));
#246=DIRECTION('ref_axis',(6.12323399573677E-17,0.,1.));
#247=DIRECTION('center_axis',(0.,-1.,-1.49302332035069E-34));
#248=DIRECTION('ref_axis',(0.,0.,-1.));
#249=DIRECTION('',(0.,1.,1.49302332035069E-34));
#250=DIRECTION('center_axis',(0.,1.,1.49302332035069E-34));
#251=DIRECTION('ref_axis',(6.12323399573677E-17,0.,1.));
#252=DIRECTION('center_axis',(0.,-1.,-1.49302332035069E-34));
#253=DIRECTION('ref_axis',(0.,1.49302332035069E-34,-1.));
#254=DIRECTION('center_axis',(0.,-1.,-1.49302332035069E-34));
#255=DIRECTION('ref_axis',(1.,0.,0.));
#256=DIRECTION('center_axis',(0.,-1.,-1.49302332035069E-34));
#257=DIRECTION('ref_axis',(0.,0.,-1.));
#258=DIRECTION('center_axis',(-1.,1.82842623031983E-50,-1.22464679914735E-16));
#259=DIRECTION('ref_axis',(-1.22464679914735E-16,0.,1.));
#260=DIRECTION('center_axis',(0.,-1.,-1.49302332035069E-34));
#261=DIRECTION('ref_axis',(6.12323399573677E-17,-1.49302332035069E-34,1.));
#262=DIRECTION('center_axis',(0.,1.,1.49302332035069E-34));
#263=DIRECTION('ref_axis',(0.,-1.49302332035069E-34,1.));
#264=DIRECTION('center_axis',(0.,-1.,-1.49302332035069E-34));
#265=DIRECTION('ref_axis',(1.,0.,0.));
#266=DIRECTION('center_axis',(0.,-1.,-1.49302332035069E-34));
#267=DIRECTION('ref_axis',(1.,0.,0.));
#268=DIRECTION('',(0.857167300702112,0.515038074910054,1.04972719113862E-16));
#269=DIRECTION('center_axis',(0.,-1.,-1.49302332035069E-34));
#270=DIRECTION('ref_axis',(1.,0.,0.));
#271=DIRECTION('center_axis',(0.,1.,1.49302332035069E-34));
#272=DIRECTION('ref_axis',(1.,0.,0.));
#273=DIRECTION('',(0.707106781186547,0.707106781186547,8.65956056235493E-17));
#274=DIRECTION('center_axis',(0.,-1.,-1.49302332035069E-34));
#275=DIRECTION('ref_axis',(1.,0.,0.));
#276=DIRECTION('center_axis',(0.,-1.,-1.49302332035069E-34));
#277=DIRECTION('ref_axis',(1.,0.,0.));
#278=DIRECTION('',(0.,1.,1.49302332035069E-34));
#279=DIRECTION('center_axis',(0.,-1.,-1.49302332035069E-34));
#280=DIRECTION('ref_axis',(0.,0.,-1.));
#281=DIRECTION('center_axis',(0.,-1.,-1.49302332035069E-34));
#282=DIRECTION('ref_axis',(1.,0.,0.));
#283=DIRECTION('',(0.,1.,1.49302332035069E-34));
#284=DIRECTION('center_axis',(0.,-1.,-1.49302332035069E-34));
#285=DIRECTION('ref_axis',(0.,1.49302332035069E-34,-1.));
#286=DIRECTION('center_axis',(0.,-1.,-1.49302332035069E-34));
#287=DIRECTION('ref_axis',(1.,0.,0.));
#288=DIRECTION('center_axis',(0.,-1.,-1.49302332035069E-34));
#289=DIRECTION('ref_axis',(0.,0.,-1.));
#290=DIRECTION('',(0.,1.,1.49302332035069E-34));
#291=DIRECTION('center_axis',(0.,-1.,-1.49302332035069E-34));
#292=DIRECTION('ref_axis',(1.,0.,0.));
#293=DIRECTION('center_axis',(0.,-1.,-1.49302332035069E-34));
#294=DIRECTION('ref_axis',(0.,1.49302332035069E-34,-1.));
#295=DIRECTION('center_axis',(0.,-1.,-1.49302332035069E-34));
#296=DIRECTION('ref_axis',(1.,0.,0.));
#297=DIRECTION('center_axis',(0.,-1.,-1.49302332035069E-34));
#298=DIRECTION('ref_axis',(0.,0.,-1.));
#299=DIRECTION('center_axis',(0.,-1.,-1.49302332035069E-34));
#300=DIRECTION('ref_axis',(1.,0.,0.));
#301=DIRECTION('',(0.,1.,1.49302332035069E-34));
#302=DIRECTION('center_axis',(0.,-1.,-1.49302332035069E-34));
#303=DIRECTION('ref_axis',(0.,1.49302332035069E-34,-1.));
#304=CARTESIAN_POINT('',(0.,0.,0.));
#305=CARTESIAN_POINT('Origin',(0.,17.2,2.98604664070144E-35));
#306=CARTESIAN_POINT('',(-1.44508322299388E-15,17.,11.8));
#307=CARTESIAN_POINT('Origin',(0.,17.,4.7775669192898E-49));
#308=CARTESIAN_POINT('',(-1.46957615897682E-15,17.2,12.));
#309=CARTESIAN_POINT('Origin',(-1.44508322299388E-15,17.2,11.8));
#310=CARTESIAN_POINT('Origin',(0.,17.2,2.98604664070144E-35));
#311=CARTESIAN_POINT('Origin',(0.,19.,2.9860466407014E-34));
#312=CARTESIAN_POINT('',(-1.46957615897682E-15,20.8,12.));
#313=CARTESIAN_POINT('',(-1.46957615897682E-15,19.,12.));
#314=CARTESIAN_POINT('Origin',(0.,20.8,5.67348861733265E-34));
#315=CARTESIAN_POINT('Origin',(0.,17.,-6.8));
#316=CARTESIAN_POINT('',(-8.327598234202E-16,17.,6.8));
#317=CARTESIAN_POINT('Origin',(0.,17.,8.55284707229503E-49));
#318=CARTESIAN_POINT('Origin',(0.,20.8,5.67348861733265E-34));
#319=CARTESIAN_POINT('',(-1.44508322299388E-15,21.,11.8));
#320=CARTESIAN_POINT('Origin',(-1.44508322299388E-15,20.8,11.8));
#321=CARTESIAN_POINT('Origin',(0.,21.,5.97209328140279E-34));
#322=CARTESIAN_POINT('Origin',(0.,21.,-12.));
#323=CARTESIAN_POINT('Origin',(0.,14.2869975317218,2.13308204926535E-33));
#324=CARTESIAN_POINT('',(-1.621,13.8,-1.98515246141786E-16));
#325=CARTESIAN_POINT('Origin',(0.,13.8,2.06037218208396E-33));
#326=CARTESIAN_POINT('',(0.,14.7739950634437,2.20579191644674E-33));
#327=CARTESIAN_POINT('',(-0.8105,14.2869975317218,-9.9257623070893E-17));
#328=CARTESIAN_POINT('Origin',(0.,2.1895,3.26897455990784E-34));
#329=CARTESIAN_POINT('',(-2.,2.,-2.44929359829471E-16));
#330=CARTESIAN_POINT('Origin',(0.,2.,2.98604664070139E-34));
#331=CARTESIAN_POINT('',(-1.621,2.379,-1.98515246141786E-16));
#332=CARTESIAN_POINT('',(-1.8105,2.1895,-2.21722302985628E-16));
#333=CARTESIAN_POINT('Origin',(0.,2.379,3.5519024791143E-34));
#334=CARTESIAN_POINT('Origin',(0.,7.9,1.17948842307705E-33));
#335=CARTESIAN_POINT('',(-1.621,7.9,-1.98515246141786E-16));
#336=CARTESIAN_POINT('Origin',(0.,8.5,-1.26906982229809E-33));
#337=CARTESIAN_POINT('',(-8.327598234202E-16,1.11022302462516E-15,6.8));
#338=CARTESIAN_POINT('Origin',(0.,1.38777878078145E-15,-2.53813964459618E-33));
#339=CARTESIAN_POINT('',(-8.327598234202E-16,8.5,6.8));
#340=CARTESIAN_POINT('Origin',(0.,1.0654427152582E-15,-5.8));
#341=CARTESIAN_POINT('',(-7.10295143505465E-16,1.11022302462516E-15,5.8));
#342=CARTESIAN_POINT('Origin',(0.,1.11022302462516E-15,-2.53813964459618E-33));
#343=CARTESIAN_POINT('Origin',(0.,6.,-1.64232565238576E-33));
#344=CARTESIAN_POINT('',(-7.10295143505465E-16,12.,5.8));
#345=CARTESIAN_POINT('',(-7.10295143505465E-16,6.,5.8));
#346=CARTESIAN_POINT('Origin',(0.,12.,-7.46511660175346E-34));
#347=CARTESIAN_POINT('Origin',(0.,12.,-3.5));
#348=CARTESIAN_POINT('',(-4.28626379701574E-16,12.,3.5));
#349=CARTESIAN_POINT('Origin',(0.,12.,-7.46511660175346E-34));
#350=CARTESIAN_POINT('Origin',(0.,7.,-1.49302332035069E-33));
#351=CARTESIAN_POINT('',(-4.28626379701574E-16,2.,3.5));
#352=CARTESIAN_POINT('Origin',(0.,2.,-2.23953498052604E-33));
#353=CARTESIAN_POINT('',(-4.28626379701574E-16,7.,3.5));
#354=CARTESIAN_POINT('Origin',(0.,2.,-2.23953498052604E-33));
#355=UNCERTAINTY_MEASURE_WITH_UNIT(LENGTH_MEASURE(0.01),#359,
'DISTANCE_ACCURACY_VALUE',
'Maximum model space distance between geometric entities at asserted c
onnectivities');
#356=UNCERTAINTY_MEASURE_WITH_UNIT(LENGTH_MEASURE(0.01),#359,
'DISTANCE_ACCURACY_VALUE',
'Maximum model space distance between geometric entities at asserted c
onnectivities');
#357=(
GEOMETRIC_REPRESENTATION_CONTEXT(3)
GLOBAL_UNCERTAINTY_ASSIGNED_CONTEXT((#355))
GLOBAL_UNIT_ASSIGNED_CONTEXT((#359,#361,#362))
REPRESENTATION_CONTEXT('','3D')
);
#358=(
GEOMETRIC_REPRESENTATION_CONTEXT(3)
GLOBAL_UNCERTAINTY_ASSIGNED_CONTEXT((#356))
GLOBAL_UNIT_ASSIGNED_CONTEXT((#359,#361,#362))
REPRESENTATION_CONTEXT('','3D')
);
#359=(
LENGTH_UNIT()
NAMED_UNIT(*)
SI_UNIT(.MILLI.,.METRE.)
);
#360=(
LENGTH_UNIT()
NAMED_UNIT(*)
SI_UNIT(.CENTI.,.METRE.)
);
#361=(
NAMED_UNIT(*)
PLANE_ANGLE_UNIT()
SI_UNIT($,.RADIAN.)
);
#362=(
NAMED_UNIT(*)
SI_UNIT($,.STERADIAN.)
SOLID_ANGLE_UNIT()
);
#363=SHAPE_DEFINITION_REPRESENTATION(#364,#365);
#364=PRODUCT_DEFINITION_SHAPE('',$,#367);
#365=SHAPE_REPRESENTATION('',(#207),#357);
#366=PRODUCT_DEFINITION_CONTEXT('part definition',#371,'design');
#367=PRODUCT_DEFINITION('GZ-SPOT','GZ-SPOT',#368,#366);
#368=PRODUCT_DEFINITION_FORMATION('',$,#373);
#369=PRODUCT_RELATED_PRODUCT_CATEGORY('GZ-SPOT','GZ-SPOT',(#373));
#370=APPLICATION_PROTOCOL_DEFINITION('international standard',
'automotive_design',2009,#371);
#371=APPLICATION_CONTEXT(
'Core Data for Automotive Mechanical Design Process');
#372=PRODUCT_CONTEXT('part definition',#371,'mechanical');
#373=PRODUCT('GZ-SPOT','GZ-SPOT',$,(#372));
#374=PRESENTATION_STYLE_ASSIGNMENT((#375));
#375=SURFACE_STYLE_USAGE(.BOTH.,#378);
#376=SURFACE_STYLE_RENDERING_WITH_PROPERTIES($,#382,(#377));
#377=SURFACE_STYLE_TRANSPARENT(0.);
#378=SURFACE_SIDE_STYLE('',(#379,#376));
#379=SURFACE_STYLE_FILL_AREA(#380);
#380=FILL_AREA_STYLE('',(#381));
#381=FILL_AREA_STYLE_COLOUR('',#382);
#382=COLOUR_RGB('',0.749019607843137,0.749019607843137,0.749019607843137);
ENDSEC;
END-ISO-10303-21;
