ISO-10303-21;
HEADER;
/* Generated by software containing ST-Developer
 * from STEP Tools, Inc. (www.steptools.com) 
 */

FILE_DESCRIPTION(
/* description */ (''),
/* implementation_level */ '2;1');

FILE_NAME(
/* name */ 'UA-EXTEND-1200.stp',
/* time_stamp */ '2022-08-26T14:36:57+02:00',
/* author */ ('MarcinS'),
/* organization */ (''),
/* preprocessor_version */ 'ST-DEVELOPER v19.2',
/* originating_system */ 'Autodesk Inventor 2023',
/* authorisation */ '');

FILE_SCHEMA (('AUTOMOTIVE_DESIGN { 1 0 10303 214 3 1 1 }'));
ENDSEC;

DATA;
#10=MECHANICAL_DESIGN_GEOMETRIC_PRESENTATION_REPRESENTATION('',(#13),#574);
#11=SHAPE_REPRESENTATION_RELATIONSHIP('SRR','None',#581,#12);
#12=ADVANCED_BREP_SHAPE_REPRESENTATION('',(#14),#573);
#13=STYLED_ITEM('',(#590),#14);
#14=MANIFOLD_SOLID_BREP('Solid1',#329);
#15=FACE_BOUND('',#63,.T.);
#16=FACE_BOUND('',#64,.T.);
#17=FACE_BOUND('',#65,.T.);
#18=FACE_BOUND('',#72,.T.);
#19=PLANE('',#355);
#20=PLANE('',#359);
#21=PLANE('',#363);
#22=PLANE('',#367);
#23=PLANE('',#368);
#24=PLANE('',#371);
#25=PLANE('',#372);
#26=PLANE('',#375);
#27=PLANE('',#378);
#28=PLANE('',#379);
#29=PLANE('',#380);
#30=PLANE('',#381);
#31=PLANE('',#382);
#32=PLANE('',#383);
#33=FACE_OUTER_BOUND('',#53,.T.);
#34=FACE_OUTER_BOUND('',#54,.T.);
#35=FACE_OUTER_BOUND('',#55,.T.);
#36=FACE_OUTER_BOUND('',#56,.T.);
#37=FACE_OUTER_BOUND('',#57,.T.);
#38=FACE_OUTER_BOUND('',#58,.T.);
#39=FACE_OUTER_BOUND('',#59,.T.);
#40=FACE_OUTER_BOUND('',#60,.T.);
#41=FACE_OUTER_BOUND('',#61,.T.);
#42=FACE_OUTER_BOUND('',#62,.T.);
#43=FACE_OUTER_BOUND('',#66,.T.);
#44=FACE_OUTER_BOUND('',#67,.T.);
#45=FACE_OUTER_BOUND('',#68,.T.);
#46=FACE_OUTER_BOUND('',#69,.T.);
#47=FACE_OUTER_BOUND('',#70,.T.);
#48=FACE_OUTER_BOUND('',#71,.T.);
#49=FACE_OUTER_BOUND('',#73,.T.);
#50=FACE_OUTER_BOUND('',#74,.T.);
#51=FACE_OUTER_BOUND('',#75,.T.);
#52=FACE_OUTER_BOUND('',#76,.T.);
#53=EDGE_LOOP('',(#219,#220,#221,#222));
#54=EDGE_LOOP('',(#223));
#55=EDGE_LOOP('',(#224,#225,#226,#227));
#56=EDGE_LOOP('',(#228));
#57=EDGE_LOOP('',(#229,#230,#231,#232));
#58=EDGE_LOOP('',(#233));
#59=EDGE_LOOP('',(#234,#235,#236,#237));
#60=EDGE_LOOP('',(#238));
#61=EDGE_LOOP('',(#239,#240,#241,#242,#243,#244,#245,#246,#247,#248));
#62=EDGE_LOOP('',(#249,#250,#251,#252));
#63=EDGE_LOOP('',(#253));
#64=EDGE_LOOP('',(#254));
#65=EDGE_LOOP('',(#255));
#66=EDGE_LOOP('',(#256,#257,#258,#259));
#67=EDGE_LOOP('',(#260,#261,#262,#263));
#68=EDGE_LOOP('',(#264,#265,#266,#267));
#69=EDGE_LOOP('',(#268,#269,#270,#271));
#70=EDGE_LOOP('',(#272,#273,#274,#275));
#71=EDGE_LOOP('',(#276,#277,#278,#279));
#72=EDGE_LOOP('',(#280));
#73=EDGE_LOOP('',(#281,#282,#283,#284));
#74=EDGE_LOOP('',(#285,#286,#287,#288));
#75=EDGE_LOOP('',(#289,#290,#291,#292));
#76=EDGE_LOOP('',(#293,#294,#295,#296,#297,#298,#299,#300,#301,#302));
#77=LINE('',#485,#107);
#78=LINE('',#492,#108);
#79=LINE('',#499,#109);
#80=LINE('',#506,#110);
#81=LINE('',#512,#111);
#82=LINE('',#514,#112);
#83=LINE('',#516,#113);
#84=LINE('',#520,#114);
#85=LINE('',#524,#115);
#86=LINE('',#526,#116);
#87=LINE('',#528,#117);
#88=LINE('',#529,#118);
#89=LINE('',#532,#119);
#90=LINE('',#534,#120);
#91=LINE('',#535,#121);
#92=LINE('',#538,#122);
#93=LINE('',#539,#123);
#94=LINE('',#543,#124);
#95=LINE('',#546,#125);
#96=LINE('',#547,#126);
#97=LINE('',#551,#127);
#98=LINE('',#554,#128);
#99=LINE('',#555,#129);
#100=LINE('',#558,#130);
#101=LINE('',#559,#131);
#102=LINE('',#562,#132);
#103=LINE('',#563,#133);
#104=LINE('',#566,#134);
#105=LINE('',#567,#135);
#106=LINE('',#569,#136);
#107=VECTOR('',#390,1.621);
#108=VECTOR('',#399,1.621);
#109=VECTOR('',#408,1.621);
#110=VECTOR('',#417,1.621);
#111=VECTOR('',#424,10.);
#112=VECTOR('',#425,10.);
#113=VECTOR('',#426,10.);
#114=VECTOR('',#429,10.);
#115=VECTOR('',#432,10.);
#116=VECTOR('',#433,10.);
#117=VECTOR('',#434,10.);
#118=VECTOR('',#435,10.);
#119=VECTOR('',#438,10.);
#120=VECTOR('',#439,10.);
#121=VECTOR('',#440,10.);
#122=VECTOR('',#443,10.);
#123=VECTOR('',#444,10.);
#124=VECTOR('',#449,10.);
#125=VECTOR('',#452,10.);
#126=VECTOR('',#453,10.);
#127=VECTOR('',#458,10.);
#128=VECTOR('',#461,10.);
#129=VECTOR('',#462,10.);
#130=VECTOR('',#465,10.);
#131=VECTOR('',#466,10.);
#132=VECTOR('',#469,10.);
#133=VECTOR('',#470,10.);
#134=VECTOR('',#473,10.);
#135=VECTOR('',#474,10.);
#136=VECTOR('',#477,10.);
#137=CIRCLE('',#353,1.621);
#138=CIRCLE('',#354,1.621);
#139=CIRCLE('',#357,1.621);
#140=CIRCLE('',#358,1.621);
#141=CIRCLE('',#361,1.621);
#142=CIRCLE('',#362,1.621);
#143=CIRCLE('',#365,1.621);
#144=CIRCLE('',#366,1.621);
#145=CIRCLE('',#369,5.);
#146=CIRCLE('',#370,4.99999999999995);
#147=CIRCLE('',#374,5.);
#148=CIRCLE('',#377,4.99999999999995);
#149=VERTEX_POINT('',#482);
#150=VERTEX_POINT('',#484);
#151=VERTEX_POINT('',#489);
#152=VERTEX_POINT('',#491);
#153=VERTEX_POINT('',#496);
#154=VERTEX_POINT('',#498);
#155=VERTEX_POINT('',#503);
#156=VERTEX_POINT('',#505);
#157=VERTEX_POINT('',#510);
#158=VERTEX_POINT('',#511);
#159=VERTEX_POINT('',#513);
#160=VERTEX_POINT('',#515);
#161=VERTEX_POINT('',#517);
#162=VERTEX_POINT('',#519);
#163=VERTEX_POINT('',#521);
#164=VERTEX_POINT('',#523);
#165=VERTEX_POINT('',#525);
#166=VERTEX_POINT('',#527);
#167=VERTEX_POINT('',#531);
#168=VERTEX_POINT('',#533);
#169=VERTEX_POINT('',#537);
#170=VERTEX_POINT('',#541);
#171=VERTEX_POINT('',#545);
#172=VERTEX_POINT('',#549);
#173=VERTEX_POINT('',#553);
#174=VERTEX_POINT('',#557);
#175=VERTEX_POINT('',#561);
#176=VERTEX_POINT('',#565);
#177=EDGE_CURVE('',#149,#149,#137,.T.);
#178=EDGE_CURVE('',#149,#150,#77,.T.);
#179=EDGE_CURVE('',#150,#150,#138,.T.);
#180=EDGE_CURVE('',#151,#151,#139,.T.);
#181=EDGE_CURVE('',#151,#152,#78,.T.);
#182=EDGE_CURVE('',#152,#152,#140,.T.);
#183=EDGE_CURVE('',#153,#153,#141,.T.);
#184=EDGE_CURVE('',#153,#154,#79,.T.);
#185=EDGE_CURVE('',#154,#154,#142,.T.);
#186=EDGE_CURVE('',#155,#155,#143,.T.);
#187=EDGE_CURVE('',#155,#156,#80,.T.);
#188=EDGE_CURVE('',#156,#156,#144,.T.);
#189=EDGE_CURVE('',#157,#158,#81,.T.);
#190=EDGE_CURVE('',#158,#159,#82,.T.);
#191=EDGE_CURVE('',#159,#160,#83,.T.);
#192=EDGE_CURVE('',#160,#161,#145,.T.);
#193=EDGE_CURVE('',#161,#162,#84,.T.);
#194=EDGE_CURVE('',#162,#163,#146,.T.);
#195=EDGE_CURVE('',#163,#164,#85,.T.);
#196=EDGE_CURVE('',#164,#165,#86,.T.);
#197=EDGE_CURVE('',#165,#166,#87,.T.);
#198=EDGE_CURVE('',#166,#157,#88,.T.);
#199=EDGE_CURVE('',#167,#158,#89,.T.);
#200=EDGE_CURVE('',#168,#167,#90,.T.);
#201=EDGE_CURVE('',#159,#168,#91,.T.);
#202=EDGE_CURVE('',#169,#168,#92,.T.);
#203=EDGE_CURVE('',#160,#169,#93,.T.);
#204=EDGE_CURVE('',#170,#169,#147,.T.);
#205=EDGE_CURVE('',#161,#170,#94,.T.);
#206=EDGE_CURVE('',#171,#170,#95,.T.);
#207=EDGE_CURVE('',#162,#171,#96,.T.);
#208=EDGE_CURVE('',#172,#171,#148,.T.);
#209=EDGE_CURVE('',#163,#172,#97,.T.);
#210=EDGE_CURVE('',#173,#172,#98,.T.);
#211=EDGE_CURVE('',#164,#173,#99,.T.);
#212=EDGE_CURVE('',#174,#173,#100,.T.);
#213=EDGE_CURVE('',#165,#174,#101,.T.);
#214=EDGE_CURVE('',#175,#174,#102,.T.);
#215=EDGE_CURVE('',#166,#175,#103,.T.);
#216=EDGE_CURVE('',#176,#175,#104,.T.);
#217=EDGE_CURVE('',#157,#176,#105,.T.);
#218=EDGE_CURVE('',#167,#176,#106,.T.);
#219=ORIENTED_EDGE('',*,*,#177,.F.);
#220=ORIENTED_EDGE('',*,*,#178,.T.);
#221=ORIENTED_EDGE('',*,*,#179,.F.);
#222=ORIENTED_EDGE('',*,*,#178,.F.);
#223=ORIENTED_EDGE('',*,*,#179,.T.);
#224=ORIENTED_EDGE('',*,*,#180,.F.);
#225=ORIENTED_EDGE('',*,*,#181,.T.);
#226=ORIENTED_EDGE('',*,*,#182,.F.);
#227=ORIENTED_EDGE('',*,*,#181,.F.);
#228=ORIENTED_EDGE('',*,*,#182,.T.);
#229=ORIENTED_EDGE('',*,*,#183,.F.);
#230=ORIENTED_EDGE('',*,*,#184,.T.);
#231=ORIENTED_EDGE('',*,*,#185,.F.);
#232=ORIENTED_EDGE('',*,*,#184,.F.);
#233=ORIENTED_EDGE('',*,*,#185,.T.);
#234=ORIENTED_EDGE('',*,*,#186,.F.);
#235=ORIENTED_EDGE('',*,*,#187,.T.);
#236=ORIENTED_EDGE('',*,*,#188,.F.);
#237=ORIENTED_EDGE('',*,*,#187,.F.);
#238=ORIENTED_EDGE('',*,*,#188,.T.);
#239=ORIENTED_EDGE('',*,*,#189,.T.);
#240=ORIENTED_EDGE('',*,*,#190,.T.);
#241=ORIENTED_EDGE('',*,*,#191,.T.);
#242=ORIENTED_EDGE('',*,*,#192,.T.);
#243=ORIENTED_EDGE('',*,*,#193,.T.);
#244=ORIENTED_EDGE('',*,*,#194,.T.);
#245=ORIENTED_EDGE('',*,*,#195,.T.);
#246=ORIENTED_EDGE('',*,*,#196,.T.);
#247=ORIENTED_EDGE('',*,*,#197,.T.);
#248=ORIENTED_EDGE('',*,*,#198,.T.);
#249=ORIENTED_EDGE('',*,*,#199,.F.);
#250=ORIENTED_EDGE('',*,*,#200,.F.);
#251=ORIENTED_EDGE('',*,*,#201,.F.);
#252=ORIENTED_EDGE('',*,*,#190,.F.);
#253=ORIENTED_EDGE('',*,*,#177,.T.);
#254=ORIENTED_EDGE('',*,*,#183,.T.);
#255=ORIENTED_EDGE('',*,*,#186,.T.);
#256=ORIENTED_EDGE('',*,*,#201,.T.);
#257=ORIENTED_EDGE('',*,*,#202,.F.);
#258=ORIENTED_EDGE('',*,*,#203,.F.);
#259=ORIENTED_EDGE('',*,*,#191,.F.);
#260=ORIENTED_EDGE('',*,*,#203,.T.);
#261=ORIENTED_EDGE('',*,*,#204,.F.);
#262=ORIENTED_EDGE('',*,*,#205,.F.);
#263=ORIENTED_EDGE('',*,*,#192,.F.);
#264=ORIENTED_EDGE('',*,*,#205,.T.);
#265=ORIENTED_EDGE('',*,*,#206,.F.);
#266=ORIENTED_EDGE('',*,*,#207,.F.);
#267=ORIENTED_EDGE('',*,*,#193,.F.);
#268=ORIENTED_EDGE('',*,*,#207,.T.);
#269=ORIENTED_EDGE('',*,*,#208,.F.);
#270=ORIENTED_EDGE('',*,*,#209,.F.);
#271=ORIENTED_EDGE('',*,*,#194,.F.);
#272=ORIENTED_EDGE('',*,*,#209,.T.);
#273=ORIENTED_EDGE('',*,*,#210,.F.);
#274=ORIENTED_EDGE('',*,*,#211,.F.);
#275=ORIENTED_EDGE('',*,*,#195,.F.);
#276=ORIENTED_EDGE('',*,*,#211,.T.);
#277=ORIENTED_EDGE('',*,*,#212,.F.);
#278=ORIENTED_EDGE('',*,*,#213,.F.);
#279=ORIENTED_EDGE('',*,*,#196,.F.);
#280=ORIENTED_EDGE('',*,*,#180,.T.);
#281=ORIENTED_EDGE('',*,*,#213,.T.);
#282=ORIENTED_EDGE('',*,*,#214,.F.);
#283=ORIENTED_EDGE('',*,*,#215,.F.);
#284=ORIENTED_EDGE('',*,*,#197,.F.);
#285=ORIENTED_EDGE('',*,*,#215,.T.);
#286=ORIENTED_EDGE('',*,*,#216,.F.);
#287=ORIENTED_EDGE('',*,*,#217,.F.);
#288=ORIENTED_EDGE('',*,*,#198,.F.);
#289=ORIENTED_EDGE('',*,*,#217,.T.);
#290=ORIENTED_EDGE('',*,*,#218,.F.);
#291=ORIENTED_EDGE('',*,*,#199,.T.);
#292=ORIENTED_EDGE('',*,*,#189,.F.);
#293=ORIENTED_EDGE('',*,*,#218,.T.);
#294=ORIENTED_EDGE('',*,*,#216,.T.);
#295=ORIENTED_EDGE('',*,*,#214,.T.);
#296=ORIENTED_EDGE('',*,*,#212,.T.);
#297=ORIENTED_EDGE('',*,*,#210,.T.);
#298=ORIENTED_EDGE('',*,*,#208,.T.);
#299=ORIENTED_EDGE('',*,*,#206,.T.);
#300=ORIENTED_EDGE('',*,*,#204,.T.);
#301=ORIENTED_EDGE('',*,*,#202,.T.);
#302=ORIENTED_EDGE('',*,*,#200,.T.);
#303=CYLINDRICAL_SURFACE('',#352,1.621);
#304=CYLINDRICAL_SURFACE('',#356,1.621);
#305=CYLINDRICAL_SURFACE('',#360,1.621);
#306=CYLINDRICAL_SURFACE('',#364,1.621);
#307=CYLINDRICAL_SURFACE('',#373,5.);
#308=CYLINDRICAL_SURFACE('',#376,4.99999999999995);
#309=ADVANCED_FACE('',(#33),#303,.F.);
#310=ADVANCED_FACE('',(#34),#19,.T.);
#311=ADVANCED_FACE('',(#35),#304,.F.);
#312=ADVANCED_FACE('',(#36),#20,.T.);
#313=ADVANCED_FACE('',(#37),#305,.F.);
#314=ADVANCED_FACE('',(#38),#21,.T.);
#315=ADVANCED_FACE('',(#39),#306,.F.);
#316=ADVANCED_FACE('',(#40),#22,.T.);
#317=ADVANCED_FACE('',(#41),#23,.F.);
#318=ADVANCED_FACE('',(#42,#15,#16,#17),#24,.T.);
#319=ADVANCED_FACE('',(#43),#25,.T.);
#320=ADVANCED_FACE('',(#44),#307,.F.);
#321=ADVANCED_FACE('',(#45),#26,.T.);
#322=ADVANCED_FACE('',(#46),#308,.F.);
#323=ADVANCED_FACE('',(#47),#27,.T.);
#324=ADVANCED_FACE('',(#48,#18),#28,.T.);
#325=ADVANCED_FACE('',(#49),#29,.T.);
#326=ADVANCED_FACE('',(#50),#30,.T.);
#327=ADVANCED_FACE('',(#51),#31,.T.);
#328=ADVANCED_FACE('',(#52),#32,.T.);
#329=CLOSED_SHELL('',(#309,#310,#311,#312,#313,#314,#315,#316,#317,#318,
#319,#320,#321,#322,#323,#324,#325,#326,#327,#328));
#330=DERIVED_UNIT_ELEMENT(#333,1.);
#331=DERIVED_UNIT_ELEMENT(#576,-3.);
#332=DIMENSIONAL_EXPONENTS(0.,1.,0.,0.,0.,0.,0.);
#333=(
CONVERSION_BASED_UNIT('gram',#335)
MASS_UNIT()
NAMED_UNIT(#332)
);
#334=(
MASS_UNIT()
NAMED_UNIT(*)
SI_UNIT(.KILO.,.GRAM.)
);
#335=MASS_MEASURE_WITH_UNIT(MASS_MEASURE(0.001),#334);
#336=DERIVED_UNIT((#330,#331));
#337=MEASURE_REPRESENTATION_ITEM('density measure',
POSITIVE_RATIO_MEASURE(1.),#336);
#338=PROPERTY_DEFINITION_REPRESENTATION(#343,#340);
#339=PROPERTY_DEFINITION_REPRESENTATION(#344,#341);
#340=REPRESENTATION('material name',(#342),#573);
#341=REPRESENTATION('density',(#337),#573);
#342=DESCRIPTIVE_REPRESENTATION_ITEM('Katalog-ALUMINIUM',
'Katalog-ALUMINIUM');
#343=PROPERTY_DEFINITION('material property','material name',#583);
#344=PROPERTY_DEFINITION('material property','density of part',#583);
#345=DATE_TIME_ROLE('creation_date');
#346=APPLIED_DATE_AND_TIME_ASSIGNMENT(#347,#345,(#583));
#347=DATE_AND_TIME(#348,#349);
#348=CALENDAR_DATE(2022,11,8);
#349=LOCAL_TIME(0,0,0.,#350);
#350=COORDINATED_UNIVERSAL_TIME_OFFSET(0,0,.BEHIND.);
#351=AXIS2_PLACEMENT_3D('placement',#480,#384,#385);
#352=AXIS2_PLACEMENT_3D('',#481,#386,#387);
#353=AXIS2_PLACEMENT_3D('',#483,#388,#389);
#354=AXIS2_PLACEMENT_3D('',#486,#391,#392);
#355=AXIS2_PLACEMENT_3D('',#487,#393,#394);
#356=AXIS2_PLACEMENT_3D('',#488,#395,#396);
#357=AXIS2_PLACEMENT_3D('',#490,#397,#398);
#358=AXIS2_PLACEMENT_3D('',#493,#400,#401);
#359=AXIS2_PLACEMENT_3D('',#494,#402,#403);
#360=AXIS2_PLACEMENT_3D('',#495,#404,#405);
#361=AXIS2_PLACEMENT_3D('',#497,#406,#407);
#362=AXIS2_PLACEMENT_3D('',#500,#409,#410);
#363=AXIS2_PLACEMENT_3D('',#501,#411,#412);
#364=AXIS2_PLACEMENT_3D('',#502,#413,#414);
#365=AXIS2_PLACEMENT_3D('',#504,#415,#416);
#366=AXIS2_PLACEMENT_3D('',#507,#418,#419);
#367=AXIS2_PLACEMENT_3D('',#508,#420,#421);
#368=AXIS2_PLACEMENT_3D('',#509,#422,#423);
#369=AXIS2_PLACEMENT_3D('',#518,#427,#428);
#370=AXIS2_PLACEMENT_3D('',#522,#430,#431);
#371=AXIS2_PLACEMENT_3D('',#530,#436,#437);
#372=AXIS2_PLACEMENT_3D('',#536,#441,#442);
#373=AXIS2_PLACEMENT_3D('',#540,#445,#446);
#374=AXIS2_PLACEMENT_3D('',#542,#447,#448);
#375=AXIS2_PLACEMENT_3D('',#544,#450,#451);
#376=AXIS2_PLACEMENT_3D('',#548,#454,#455);
#377=AXIS2_PLACEMENT_3D('',#550,#456,#457);
#378=AXIS2_PLACEMENT_3D('',#552,#459,#460);
#379=AXIS2_PLACEMENT_3D('',#556,#463,#464);
#380=AXIS2_PLACEMENT_3D('',#560,#467,#468);
#381=AXIS2_PLACEMENT_3D('',#564,#471,#472);
#382=AXIS2_PLACEMENT_3D('',#568,#475,#476);
#383=AXIS2_PLACEMENT_3D('',#570,#478,#479);
#384=DIRECTION('axis',(0.,0.,1.));
#385=DIRECTION('refdir',(1.,0.,0.));
#386=DIRECTION('center_axis',(0.,-1.,0.));
#387=DIRECTION('ref_axis',(1.,0.,0.));
#388=DIRECTION('center_axis',(5.08852219619863E-17,1.,0.));
#389=DIRECTION('ref_axis',(1.,0.,0.));
#390=DIRECTION('',(0.,1.,0.));
#391=DIRECTION('center_axis',(0.,-1.,0.));
#392=DIRECTION('ref_axis',(1.,0.,0.));
#393=DIRECTION('center_axis',(0.,-1.,0.));
#394=DIRECTION('ref_axis',(1.,0.,0.));
#395=DIRECTION('center_axis',(0.,-1.,0.));
#396=DIRECTION('ref_axis',(1.,0.,0.));
#397=DIRECTION('center_axis',(0.,1.,0.));
#398=DIRECTION('ref_axis',(1.,0.,0.));
#399=DIRECTION('',(0.,1.,0.));
#400=DIRECTION('center_axis',(0.,-1.,0.));
#401=DIRECTION('ref_axis',(1.,0.,0.));
#402=DIRECTION('center_axis',(0.,-1.,0.));
#403=DIRECTION('ref_axis',(1.,0.,0.));
#404=DIRECTION('center_axis',(0.,-1.,0.));
#405=DIRECTION('ref_axis',(1.,0.,0.));
#406=DIRECTION('center_axis',(5.08852219619863E-17,1.,0.));
#407=DIRECTION('ref_axis',(1.,0.,0.));
#408=DIRECTION('',(0.,1.,0.));
#409=DIRECTION('center_axis',(0.,-1.,0.));
#410=DIRECTION('ref_axis',(1.,0.,0.));
#411=DIRECTION('center_axis',(0.,-1.,0.));
#412=DIRECTION('ref_axis',(1.,0.,0.));
#413=DIRECTION('center_axis',(0.,-1.,0.));
#414=DIRECTION('ref_axis',(1.,0.,0.));
#415=DIRECTION('center_axis',(5.08852219619863E-17,1.,0.));
#416=DIRECTION('ref_axis',(1.,0.,0.));
#417=DIRECTION('',(0.,1.,0.));
#418=DIRECTION('center_axis',(0.,-1.,0.));
#419=DIRECTION('ref_axis',(1.,0.,0.));
#420=DIRECTION('center_axis',(0.,-1.,0.));
#421=DIRECTION('ref_axis',(1.,0.,0.));
#422=DIRECTION('center_axis',(0.,0.,1.));
#423=DIRECTION('ref_axis',(1.,0.,0.));
#424=DIRECTION('',(0.,-1.,0.));
#425=DIRECTION('',(-1.,5.08852219619863E-17,0.));
#426=DIRECTION('',(0.,1.,0.));
#427=DIRECTION('center_axis',(0.,0.,1.));
#428=DIRECTION('ref_axis',(-1.,-1.2490009027033E-16,0.));
#429=DIRECTION('',(-1.,-2.48339360771417E-16,0.));
#430=DIRECTION('center_axis',(0.,0.,1.));
#431=DIRECTION('ref_axis',(-1.42108547152021E-14,-1.,0.));
#432=DIRECTION('',(0.,-1.,0.));
#433=DIRECTION('',(-1.,0.,0.));
#434=DIRECTION('',(0.,1.,0.));
#435=DIRECTION('',(1.,0.,0.));
#436=DIRECTION('center_axis',(-5.08852219619863E-17,-1.,0.));
#437=DIRECTION('ref_axis',(1.,-5.08852219619863E-17,0.));
#438=DIRECTION('',(0.,0.,-1.));
#439=DIRECTION('',(1.,-5.08852219619863E-17,0.));
#440=DIRECTION('',(0.,0.,1.));
#441=DIRECTION('center_axis',(-1.,0.,0.));
#442=DIRECTION('ref_axis',(0.,-1.,0.));
#443=DIRECTION('',(0.,-1.,0.));
#444=DIRECTION('',(0.,0.,1.));
#445=DIRECTION('center_axis',(0.,0.,1.));
#446=DIRECTION('ref_axis',(-1.,-1.2490009027033E-16,0.));
#447=DIRECTION('center_axis',(0.,0.,-1.));
#448=DIRECTION('ref_axis',(-1.,-1.2490009027033E-16,0.));
#449=DIRECTION('',(0.,0.,1.));
#450=DIRECTION('center_axis',(2.48339360771417E-16,-1.,0.));
#451=DIRECTION('ref_axis',(1.,2.48339360771417E-16,0.));
#452=DIRECTION('',(1.,2.48339360771417E-16,0.));
#453=DIRECTION('',(0.,0.,1.));
#454=DIRECTION('center_axis',(0.,0.,1.));
#455=DIRECTION('ref_axis',(-1.42108547152021E-14,-1.,0.));
#456=DIRECTION('center_axis',(0.,0.,-1.));
#457=DIRECTION('ref_axis',(-1.42108547152021E-14,-1.,0.));
#458=DIRECTION('',(0.,0.,1.));
#459=DIRECTION('center_axis',(1.,0.,0.));
#460=DIRECTION('ref_axis',(0.,1.,0.));
#461=DIRECTION('',(0.,1.,0.));
#462=DIRECTION('',(0.,0.,1.));
#463=DIRECTION('center_axis',(0.,-1.,0.));
#464=DIRECTION('ref_axis',(1.,0.,0.));
#465=DIRECTION('',(1.,0.,0.));
#466=DIRECTION('',(0.,0.,1.));
#467=DIRECTION('center_axis',(-1.,0.,0.));
#468=DIRECTION('ref_axis',(0.,-1.,0.));
#469=DIRECTION('',(0.,-1.,0.));
#470=DIRECTION('',(0.,0.,1.));
#471=DIRECTION('center_axis',(0.,1.,0.));
#472=DIRECTION('ref_axis',(-1.,0.,0.));
#473=DIRECTION('',(-1.,0.,0.));
#474=DIRECTION('',(0.,0.,1.));
#475=DIRECTION('center_axis',(1.,0.,0.));
#476=DIRECTION('ref_axis',(0.,1.,0.));
#477=DIRECTION('',(0.,1.,0.));
#478=DIRECTION('center_axis',(0.,0.,1.));
#479=DIRECTION('ref_axis',(1.,0.,0.));
#480=CARTESIAN_POINT('',(0.,0.,0.));
#481=CARTESIAN_POINT('Origin',(96.0000000000001,-7.25,0.));
#482=CARTESIAN_POINT('',(94.3790000000001,-12.5,-1.98515246141786E-16));
#483=CARTESIAN_POINT('Origin',(96.0000000000001,-12.5,0.));
#484=CARTESIAN_POINT('',(94.3790000000001,-2.,-1.98515246141786E-16));
#485=CARTESIAN_POINT('',(94.3790000000001,-7.25,-1.98515246141786E-16));
#486=CARTESIAN_POINT('Origin',(96.0000000000001,-2.,0.));
#487=CARTESIAN_POINT('Origin',(96.0000000000001,-2.,0.));
#488=CARTESIAN_POINT('Origin',(-576.5,-7.25,0.));
#489=CARTESIAN_POINT('',(-578.121,-12.5,-1.98515246141786E-16));
#490=CARTESIAN_POINT('Origin',(-576.5,-12.5,0.));
#491=CARTESIAN_POINT('',(-578.121,-2.,-1.98515246141786E-16));
#492=CARTESIAN_POINT('',(-578.121,-7.25,-1.98515246141786E-16));
#493=CARTESIAN_POINT('Origin',(-576.5,-2.,0.));
#494=CARTESIAN_POINT('Origin',(-576.5,-2.,0.));
#495=CARTESIAN_POINT('Origin',(-352.,-7.25,0.));
#496=CARTESIAN_POINT('',(-353.621,-12.5,-1.98515246141786E-16));
#497=CARTESIAN_POINT('Origin',(-352.,-12.5,0.));
#498=CARTESIAN_POINT('',(-353.621,-2.,-1.98515246141786E-16));
#499=CARTESIAN_POINT('',(-353.621,-7.25,-1.98515246141786E-16));
#500=CARTESIAN_POINT('Origin',(-352.,-2.,0.));
#501=CARTESIAN_POINT('Origin',(-352.,-2.,0.));
#502=CARTESIAN_POINT('Origin',(576.,-7.25,0.));
#503=CARTESIAN_POINT('',(574.379,-12.5,-1.98515246141786E-16));
#504=CARTESIAN_POINT('Origin',(576.,-12.5,0.));
#505=CARTESIAN_POINT('',(574.379,-2.,-1.98515246141786E-16));
#506=CARTESIAN_POINT('',(574.379,-7.25,-1.98515246141786E-16));
#507=CARTESIAN_POINT('Origin',(576.,-2.,0.));
#508=CARTESIAN_POINT('Origin',(576.,-2.,0.));
#509=CARTESIAN_POINT('Origin',(0.,0.,-3.7));
#510=CARTESIAN_POINT('',(600.,12.5,-3.7));
#511=CARTESIAN_POINT('',(600.,-12.5,-3.7));
#512=CARTESIAN_POINT('',(600.,-12.5,-3.7));
#513=CARTESIAN_POINT('',(-360.,-12.5,-3.7));
#514=CARTESIAN_POINT('',(-360.,-12.5,-3.7));
#515=CARTESIAN_POINT('',(-360.,-0.499999999999949,-3.7));
#516=CARTESIAN_POINT('',(-360.,-0.499999999999949,-3.7));
#517=CARTESIAN_POINT('',(-365.,4.50000000000005,-3.7));
#518=CARTESIAN_POINT('Origin',(-365.,-0.49999999999995,-3.7));
#519=CARTESIAN_POINT('',(-555.,4.5,-3.7));
#520=CARTESIAN_POINT('',(-555.,4.5,-3.7));
#521=CARTESIAN_POINT('',(-560.,-0.499999999999998,-3.7));
#522=CARTESIAN_POINT('Origin',(-555.,-0.49999999999995,-3.7));
#523=CARTESIAN_POINT('',(-560.,-12.5,-3.7));
#524=CARTESIAN_POINT('',(-560.,-12.5,-3.7));
#525=CARTESIAN_POINT('',(-600.,-12.5,-3.7));
#526=CARTESIAN_POINT('',(-600.,-12.5,-3.7));
#527=CARTESIAN_POINT('',(-600.,12.5,-3.7));
#528=CARTESIAN_POINT('',(-600.,12.5,-3.7));
#529=CARTESIAN_POINT('',(600.,12.5,-3.7));
#530=CARTESIAN_POINT('Origin',(-360.,-12.5,0.));
#531=CARTESIAN_POINT('',(600.,-12.5,3.7));
#532=CARTESIAN_POINT('',(600.,-12.5,0.));
#533=CARTESIAN_POINT('',(-360.,-12.5,3.7));
#534=CARTESIAN_POINT('',(-360.,-12.5,3.7));
#535=CARTESIAN_POINT('',(-360.,-12.5,0.));
#536=CARTESIAN_POINT('Origin',(-360.,-0.49999999999995,0.));
#537=CARTESIAN_POINT('',(-360.,-0.499999999999949,3.7));
#538=CARTESIAN_POINT('',(-360.,-0.499999999999949,3.7));
#539=CARTESIAN_POINT('',(-360.,-0.49999999999995,0.));
#540=CARTESIAN_POINT('Origin',(-365.,-0.49999999999995,0.));
#541=CARTESIAN_POINT('',(-365.,4.50000000000005,3.7));
#542=CARTESIAN_POINT('Origin',(-365.,-0.49999999999995,3.7));
#543=CARTESIAN_POINT('',(-365.,4.50000000000005,0.));
#544=CARTESIAN_POINT('Origin',(-555.,4.5,0.));
#545=CARTESIAN_POINT('',(-555.,4.5,3.7));
#546=CARTESIAN_POINT('',(-555.,4.5,3.7));
#547=CARTESIAN_POINT('',(-555.,4.5,0.));
#548=CARTESIAN_POINT('Origin',(-555.,-0.49999999999995,0.));
#549=CARTESIAN_POINT('',(-560.,-0.499999999999998,3.7));
#550=CARTESIAN_POINT('Origin',(-555.,-0.49999999999995,3.7));
#551=CARTESIAN_POINT('',(-560.,-0.499999999999999,0.));
#552=CARTESIAN_POINT('Origin',(-560.,-12.5,0.));
#553=CARTESIAN_POINT('',(-560.,-12.5,3.7));
#554=CARTESIAN_POINT('',(-560.,-12.5,3.7));
#555=CARTESIAN_POINT('',(-560.,-12.5,0.));
#556=CARTESIAN_POINT('Origin',(-600.,-12.5,0.));
#557=CARTESIAN_POINT('',(-600.,-12.5,3.7));
#558=CARTESIAN_POINT('',(-600.,-12.5,3.7));
#559=CARTESIAN_POINT('',(-600.,-12.5,0.));
#560=CARTESIAN_POINT('Origin',(-600.,12.5,0.));
#561=CARTESIAN_POINT('',(-600.,12.5,3.7));
#562=CARTESIAN_POINT('',(-600.,12.5,3.7));
#563=CARTESIAN_POINT('',(-600.,12.5,0.));
#564=CARTESIAN_POINT('Origin',(600.,12.5,0.));
#565=CARTESIAN_POINT('',(600.,12.5,3.7));
#566=CARTESIAN_POINT('',(600.,12.5,3.7));
#567=CARTESIAN_POINT('',(600.,12.5,0.));
#568=CARTESIAN_POINT('Origin',(600.,-12.5,0.));
#569=CARTESIAN_POINT('',(600.,-12.5,3.7));
#570=CARTESIAN_POINT('Origin',(0.,0.,3.7));
#571=UNCERTAINTY_MEASURE_WITH_UNIT(LENGTH_MEASURE(0.01),#575,
'DISTANCE_ACCURACY_VALUE',
'Maximum model space distance between geometric entities at asserted c
onnectivities');
#572=UNCERTAINTY_MEASURE_WITH_UNIT(LENGTH_MEASURE(0.01),#575,
'DISTANCE_ACCURACY_VALUE',
'Maximum model space distance between geometric entities at asserted c
onnectivities');
#573=(
GEOMETRIC_REPRESENTATION_CONTEXT(3)
GLOBAL_UNCERTAINTY_ASSIGNED_CONTEXT((#571))
GLOBAL_UNIT_ASSIGNED_CONTEXT((#575,#577,#578))
REPRESENTATION_CONTEXT('','3D')
);
#574=(
GEOMETRIC_REPRESENTATION_CONTEXT(3)
GLOBAL_UNCERTAINTY_ASSIGNED_CONTEXT((#572))
GLOBAL_UNIT_ASSIGNED_CONTEXT((#575,#577,#578))
REPRESENTATION_CONTEXT('','3D')
);
#575=(
LENGTH_UNIT()
NAMED_UNIT(*)
SI_UNIT(.MILLI.,.METRE.)
);
#576=(
LENGTH_UNIT()
NAMED_UNIT(*)
SI_UNIT(.CENTI.,.METRE.)
);
#577=(
NAMED_UNIT(*)
PLANE_ANGLE_UNIT()
SI_UNIT($,.RADIAN.)
);
#578=(
NAMED_UNIT(*)
SI_UNIT($,.STERADIAN.)
SOLID_ANGLE_UNIT()
);
#579=SHAPE_DEFINITION_REPRESENTATION(#580,#581);
#580=PRODUCT_DEFINITION_SHAPE('',$,#583);
#581=SHAPE_REPRESENTATION('',(#351),#573);
#582=PRODUCT_DEFINITION_CONTEXT('part definition',#587,'design');
#583=PRODUCT_DEFINITION('UA-EXTEND-1200','UA-EXTEND-1200',#584,#582);
#584=PRODUCT_DEFINITION_FORMATION('',$,#589);
#585=PRODUCT_RELATED_PRODUCT_CATEGORY('UA-EXTEND-1200','UA-EXTEND-1200',
(#589));
#586=APPLICATION_PROTOCOL_DEFINITION('international standard',
'automotive_design',2009,#587);
#587=APPLICATION_CONTEXT(
'Core Data for Automotive Mechanical Design Process');
#588=PRODUCT_CONTEXT('part definition',#587,'mechanical');
#589=PRODUCT('UA-EXTEND-1200','UA-EXTEND-1200',$,(#588));
#590=PRESENTATION_STYLE_ASSIGNMENT((#591));
#591=SURFACE_STYLE_USAGE(.BOTH.,#594);
#592=SURFACE_STYLE_RENDERING_WITH_PROPERTIES($,#598,(#593));
#593=SURFACE_STYLE_TRANSPARENT(0.);
#594=SURFACE_SIDE_STYLE('',(#595,#592));
#595=SURFACE_STYLE_FILL_AREA(#596);
#596=FILL_AREA_STYLE('',(#597));
#597=FILL_AREA_STYLE_COLOUR('',#598);
#598=COLOUR_RGB('',0.992156862745098,0.996078431372549,1.);
ENDSEC;
END-ISO-10303-21;
