ISO-10303-21;
HEADER;
/* Generated by software containing ST-Developer
 * from STEP Tools, Inc. (www.steptools.com) 
 */

FILE_DESCRIPTION(
/* description */ ('Handle UA-TREX'),
/* implementation_level */ '2;1');

FILE_NAME(
/* name */ 'UA-TREX-320-350.stp',
/* time_stamp */ '2023-08-25T09:58:44+02:00',
/* author */ ('tomaszw'),
/* organization */ (''),
/* preprocessor_version */ 'ST-DEVELOPER v19.2',
/* originating_system */ 'Autodesk Inventor 2023',
/* authorisation */ '');

FILE_SCHEMA (('AUTOMOTIVE_DESIGN { 1 0 10303 214 3 1 1 }'));
ENDSEC;

DATA;
#10=MECHANICAL_DESIGN_GEOMETRIC_PRESENTATION_REPRESENTATION('',(#13),#507);
#11=SHAPE_REPRESENTATION_RELATIONSHIP('SRR','None',#514,#12);
#12=ADVANCED_BREP_SHAPE_REPRESENTATION('',(#14),#506);
#13=STYLED_ITEM('',(#523),#14);
#14=MANIFOLD_SOLID_BREP('Bry\X2\0142\X0\a1',#294);
#15=FACE_BOUND('',#58,.T.);
#16=FACE_BOUND('',#59,.T.);
#17=FACE_BOUND('',#62,.T.);
#18=FACE_BOUND('',#63,.T.);
#19=PLANE('',#326);
#20=PLANE('',#327);
#21=PLANE('',#331);
#22=PLANE('',#332);
#23=PLANE('',#333);
#24=PLANE('',#337);
#25=PLANE('',#338);
#26=PLANE('',#339);
#27=PLANE('',#340);
#28=PLANE('',#341);
#29=CYLINDRICAL_SURFACE('',#323,0.500000000000003);
#30=CYLINDRICAL_SURFACE('',#328,2.5);
#31=CYLINDRICAL_SURFACE('',#334,0.500000000000002);
#32=FACE_OUTER_BOUND('',#47,.T.);
#33=FACE_OUTER_BOUND('',#48,.T.);
#34=FACE_OUTER_BOUND('',#49,.T.);
#35=FACE_OUTER_BOUND('',#50,.T.);
#36=FACE_OUTER_BOUND('',#51,.T.);
#37=FACE_OUTER_BOUND('',#52,.T.);
#38=FACE_OUTER_BOUND('',#53,.T.);
#39=FACE_OUTER_BOUND('',#54,.T.);
#40=FACE_OUTER_BOUND('',#55,.T.);
#41=FACE_OUTER_BOUND('',#56,.T.);
#42=FACE_OUTER_BOUND('',#57,.T.);
#43=FACE_OUTER_BOUND('',#60,.T.);
#44=FACE_OUTER_BOUND('',#61,.T.);
#45=FACE_OUTER_BOUND('',#64,.T.);
#46=FACE_OUTER_BOUND('',#65,.T.);
#47=EDGE_LOOP('',(#199,#200,#201,#202));
#48=EDGE_LOOP('',(#203,#204,#205,#206));
#49=EDGE_LOOP('',(#207,#208,#209,#210));
#50=EDGE_LOOP('',(#211,#212,#213,#214));
#51=EDGE_LOOP('',(#215,#216,#217,#218));
#52=EDGE_LOOP('',(#219,#220,#221,#222));
#53=EDGE_LOOP('',(#223,#224,#225,#226));
#54=EDGE_LOOP('',(#227,#228,#229,#230));
#55=EDGE_LOOP('',(#231,#232,#233,#234));
#56=EDGE_LOOP('',(#235,#236,#237,#238));
#57=EDGE_LOOP('',(#239,#240,#241,#242));
#58=EDGE_LOOP('',(#243));
#59=EDGE_LOOP('',(#244));
#60=EDGE_LOOP('',(#245,#246,#247,#248));
#61=EDGE_LOOP('',(#249,#250,#251,#252));
#62=EDGE_LOOP('',(#253));
#63=EDGE_LOOP('',(#254));
#64=EDGE_LOOP('',(#255,#256,#257,#258,#259,#260,#261,#262,#263,#264,#265));
#65=EDGE_LOOP('',(#266,#267,#268,#269,#270,#271,#272,#273,#274,#275,#276));
#66=LINE('',#428,#95);
#67=LINE('',#434,#96);
#68=LINE('',#441,#97);
#69=LINE('',#444,#98);
#70=LINE('',#447,#99);
#71=LINE('',#449,#100);
#72=LINE('',#450,#101);
#73=LINE('',#453,#102);
#74=LINE('',#455,#103);
#75=LINE('',#456,#104);
#76=LINE('',#462,#105);
#77=LINE('',#465,#106);
#78=LINE('',#467,#107);
#79=LINE('',#468,#108);
#80=LINE('',#471,#109);
#81=LINE('',#473,#110);
#82=LINE('',#474,#111);
#83=LINE('',#477,#112);
#84=LINE('',#479,#113);
#85=LINE('',#480,#114);
#86=LINE('',#486,#115);
#87=LINE('',#489,#116);
#88=LINE('',#491,#117);
#89=LINE('',#492,#118);
#90=LINE('',#495,#119);
#91=LINE('',#497,#120);
#92=LINE('',#498,#121);
#93=LINE('',#500,#122);
#94=LINE('',#501,#123);
#95=VECTOR('',#348,3.);
#96=VECTOR('',#355,3.);
#97=VECTOR('',#362,10.);
#98=VECTOR('',#365,10.);
#99=VECTOR('',#368,10.);
#100=VECTOR('',#369,10.);
#101=VECTOR('',#370,10.);
#102=VECTOR('',#373,10.);
#103=VECTOR('',#374,10.);
#104=VECTOR('',#375,10.);
#105=VECTOR('',#382,10.);
#106=VECTOR('',#385,10.);
#107=VECTOR('',#386,10.);
#108=VECTOR('',#387,10.);
#109=VECTOR('',#390,10.);
#110=VECTOR('',#391,10.);
#111=VECTOR('',#392,10.);
#112=VECTOR('',#395,10.);
#113=VECTOR('',#396,10.);
#114=VECTOR('',#397,10.);
#115=VECTOR('',#404,10.);
#116=VECTOR('',#407,10.);
#117=VECTOR('',#408,10.);
#118=VECTOR('',#409,10.);
#119=VECTOR('',#412,10.);
#120=VECTOR('',#413,10.);
#121=VECTOR('',#414,10.);
#122=VECTOR('',#417,10.);
#123=VECTOR('',#418,10.);
#124=CIRCLE('',#318,4.);
#125=CIRCLE('',#319,2.49999999999999);
#126=CIRCLE('',#321,4.);
#127=CIRCLE('',#322,2.49999999999999);
#128=CIRCLE('',#324,0.500000000000003);
#129=CIRCLE('',#325,0.500000000000003);
#130=CIRCLE('',#329,2.5);
#131=CIRCLE('',#330,2.5);
#132=CIRCLE('',#335,0.500000000000002);
#133=CIRCLE('',#336,0.500000000000002);
#134=VERTEX_POINT('',#425);
#135=VERTEX_POINT('',#427);
#136=VERTEX_POINT('',#431);
#137=VERTEX_POINT('',#433);
#138=VERTEX_POINT('',#437);
#139=VERTEX_POINT('',#438);
#140=VERTEX_POINT('',#440);
#141=VERTEX_POINT('',#442);
#142=VERTEX_POINT('',#446);
#143=VERTEX_POINT('',#448);
#144=VERTEX_POINT('',#452);
#145=VERTEX_POINT('',#454);
#146=VERTEX_POINT('',#458);
#147=VERTEX_POINT('',#460);
#148=VERTEX_POINT('',#464);
#149=VERTEX_POINT('',#466);
#150=VERTEX_POINT('',#470);
#151=VERTEX_POINT('',#472);
#152=VERTEX_POINT('',#476);
#153=VERTEX_POINT('',#478);
#154=VERTEX_POINT('',#482);
#155=VERTEX_POINT('',#484);
#156=VERTEX_POINT('',#488);
#157=VERTEX_POINT('',#490);
#158=VERTEX_POINT('',#494);
#159=VERTEX_POINT('',#496);
#160=EDGE_CURVE('',#134,#134,#124,.T.);
#161=EDGE_CURVE('',#134,#135,#66,.T.);
#162=EDGE_CURVE('',#135,#135,#125,.T.);
#163=EDGE_CURVE('',#136,#136,#126,.T.);
#164=EDGE_CURVE('',#136,#137,#67,.T.);
#165=EDGE_CURVE('',#137,#137,#127,.T.);
#166=EDGE_CURVE('',#138,#139,#128,.T.);
#167=EDGE_CURVE('',#138,#140,#68,.T.);
#168=EDGE_CURVE('',#141,#140,#129,.T.);
#169=EDGE_CURVE('',#139,#141,#69,.T.);
#170=EDGE_CURVE('',#139,#142,#70,.T.);
#171=EDGE_CURVE('',#143,#141,#71,.T.);
#172=EDGE_CURVE('',#142,#143,#72,.T.);
#173=EDGE_CURVE('',#142,#144,#73,.T.);
#174=EDGE_CURVE('',#145,#143,#74,.T.);
#175=EDGE_CURVE('',#144,#145,#75,.T.);
#176=EDGE_CURVE('',#144,#146,#130,.T.);
#177=EDGE_CURVE('',#147,#145,#131,.T.);
#178=EDGE_CURVE('',#146,#147,#76,.T.);
#179=EDGE_CURVE('',#146,#148,#77,.T.);
#180=EDGE_CURVE('',#149,#147,#78,.T.);
#181=EDGE_CURVE('',#148,#149,#79,.T.);
#182=EDGE_CURVE('',#148,#150,#80,.T.);
#183=EDGE_CURVE('',#151,#149,#81,.T.);
#184=EDGE_CURVE('',#150,#151,#82,.T.);
#185=EDGE_CURVE('',#150,#152,#83,.T.);
#186=EDGE_CURVE('',#153,#151,#84,.T.);
#187=EDGE_CURVE('',#152,#153,#85,.T.);
#188=EDGE_CURVE('',#152,#154,#132,.T.);
#189=EDGE_CURVE('',#155,#153,#133,.T.);
#190=EDGE_CURVE('',#154,#155,#86,.T.);
#191=EDGE_CURVE('',#154,#156,#87,.T.);
#192=EDGE_CURVE('',#157,#155,#88,.T.);
#193=EDGE_CURVE('',#156,#157,#89,.T.);
#194=EDGE_CURVE('',#156,#158,#90,.T.);
#195=EDGE_CURVE('',#159,#157,#91,.T.);
#196=EDGE_CURVE('',#158,#159,#92,.T.);
#197=EDGE_CURVE('',#158,#138,#93,.T.);
#198=EDGE_CURVE('',#140,#159,#94,.T.);
#199=ORIENTED_EDGE('',*,*,#160,.F.);
#200=ORIENTED_EDGE('',*,*,#161,.T.);
#201=ORIENTED_EDGE('',*,*,#162,.F.);
#202=ORIENTED_EDGE('',*,*,#161,.F.);
#203=ORIENTED_EDGE('',*,*,#163,.F.);
#204=ORIENTED_EDGE('',*,*,#164,.T.);
#205=ORIENTED_EDGE('',*,*,#165,.F.);
#206=ORIENTED_EDGE('',*,*,#164,.F.);
#207=ORIENTED_EDGE('',*,*,#166,.F.);
#208=ORIENTED_EDGE('',*,*,#167,.T.);
#209=ORIENTED_EDGE('',*,*,#168,.F.);
#210=ORIENTED_EDGE('',*,*,#169,.F.);
#211=ORIENTED_EDGE('',*,*,#170,.F.);
#212=ORIENTED_EDGE('',*,*,#169,.T.);
#213=ORIENTED_EDGE('',*,*,#171,.F.);
#214=ORIENTED_EDGE('',*,*,#172,.F.);
#215=ORIENTED_EDGE('',*,*,#173,.F.);
#216=ORIENTED_EDGE('',*,*,#172,.T.);
#217=ORIENTED_EDGE('',*,*,#174,.F.);
#218=ORIENTED_EDGE('',*,*,#175,.F.);
#219=ORIENTED_EDGE('',*,*,#176,.F.);
#220=ORIENTED_EDGE('',*,*,#175,.T.);
#221=ORIENTED_EDGE('',*,*,#177,.F.);
#222=ORIENTED_EDGE('',*,*,#178,.F.);
#223=ORIENTED_EDGE('',*,*,#179,.F.);
#224=ORIENTED_EDGE('',*,*,#178,.T.);
#225=ORIENTED_EDGE('',*,*,#180,.F.);
#226=ORIENTED_EDGE('',*,*,#181,.F.);
#227=ORIENTED_EDGE('',*,*,#182,.F.);
#228=ORIENTED_EDGE('',*,*,#181,.T.);
#229=ORIENTED_EDGE('',*,*,#183,.F.);
#230=ORIENTED_EDGE('',*,*,#184,.F.);
#231=ORIENTED_EDGE('',*,*,#185,.F.);
#232=ORIENTED_EDGE('',*,*,#184,.T.);
#233=ORIENTED_EDGE('',*,*,#186,.F.);
#234=ORIENTED_EDGE('',*,*,#187,.F.);
#235=ORIENTED_EDGE('',*,*,#188,.F.);
#236=ORIENTED_EDGE('',*,*,#187,.T.);
#237=ORIENTED_EDGE('',*,*,#189,.F.);
#238=ORIENTED_EDGE('',*,*,#190,.F.);
#239=ORIENTED_EDGE('',*,*,#191,.F.);
#240=ORIENTED_EDGE('',*,*,#190,.T.);
#241=ORIENTED_EDGE('',*,*,#192,.F.);
#242=ORIENTED_EDGE('',*,*,#193,.F.);
#243=ORIENTED_EDGE('',*,*,#162,.T.);
#244=ORIENTED_EDGE('',*,*,#165,.T.);
#245=ORIENTED_EDGE('',*,*,#194,.F.);
#246=ORIENTED_EDGE('',*,*,#193,.T.);
#247=ORIENTED_EDGE('',*,*,#195,.F.);
#248=ORIENTED_EDGE('',*,*,#196,.F.);
#249=ORIENTED_EDGE('',*,*,#197,.F.);
#250=ORIENTED_EDGE('',*,*,#196,.T.);
#251=ORIENTED_EDGE('',*,*,#198,.F.);
#252=ORIENTED_EDGE('',*,*,#167,.F.);
#253=ORIENTED_EDGE('',*,*,#160,.T.);
#254=ORIENTED_EDGE('',*,*,#163,.T.);
#255=ORIENTED_EDGE('',*,*,#197,.T.);
#256=ORIENTED_EDGE('',*,*,#166,.T.);
#257=ORIENTED_EDGE('',*,*,#170,.T.);
#258=ORIENTED_EDGE('',*,*,#173,.T.);
#259=ORIENTED_EDGE('',*,*,#176,.T.);
#260=ORIENTED_EDGE('',*,*,#179,.T.);
#261=ORIENTED_EDGE('',*,*,#182,.T.);
#262=ORIENTED_EDGE('',*,*,#185,.T.);
#263=ORIENTED_EDGE('',*,*,#188,.T.);
#264=ORIENTED_EDGE('',*,*,#191,.T.);
#265=ORIENTED_EDGE('',*,*,#194,.T.);
#266=ORIENTED_EDGE('',*,*,#198,.T.);
#267=ORIENTED_EDGE('',*,*,#195,.T.);
#268=ORIENTED_EDGE('',*,*,#192,.T.);
#269=ORIENTED_EDGE('',*,*,#189,.T.);
#270=ORIENTED_EDGE('',*,*,#186,.T.);
#271=ORIENTED_EDGE('',*,*,#183,.T.);
#272=ORIENTED_EDGE('',*,*,#180,.T.);
#273=ORIENTED_EDGE('',*,*,#177,.T.);
#274=ORIENTED_EDGE('',*,*,#174,.T.);
#275=ORIENTED_EDGE('',*,*,#171,.T.);
#276=ORIENTED_EDGE('',*,*,#168,.T.);
#277=CONICAL_SURFACE('',#317,3.,0.785398163397448);
#278=CONICAL_SURFACE('',#320,3.,0.785398163397448);
#279=ADVANCED_FACE('',(#32),#277,.F.);
#280=ADVANCED_FACE('',(#33),#278,.F.);
#281=ADVANCED_FACE('',(#34),#29,.T.);
#282=ADVANCED_FACE('',(#35),#19,.T.);
#283=ADVANCED_FACE('',(#36),#20,.T.);
#284=ADVANCED_FACE('',(#37),#30,.T.);
#285=ADVANCED_FACE('',(#38),#21,.T.);
#286=ADVANCED_FACE('',(#39),#22,.T.);
#287=ADVANCED_FACE('',(#40),#23,.T.);
#288=ADVANCED_FACE('',(#41),#31,.F.);
#289=ADVANCED_FACE('',(#42,#15,#16),#24,.T.);
#290=ADVANCED_FACE('',(#43),#25,.T.);
#291=ADVANCED_FACE('',(#44,#17,#18),#26,.T.);
#292=ADVANCED_FACE('',(#45),#27,.F.);
#293=ADVANCED_FACE('',(#46),#28,.T.);
#294=CLOSED_SHELL('',(#279,#280,#281,#282,#283,#284,#285,#286,#287,#288,
#289,#290,#291,#292,#293));
#295=DERIVED_UNIT_ELEMENT(#298,1.);
#296=DERIVED_UNIT_ELEMENT(#509,-3.);
#297=DIMENSIONAL_EXPONENTS(0.,1.,0.,0.,0.,0.,0.);
#298=(
CONVERSION_BASED_UNIT('gram',#300)
MASS_UNIT()
NAMED_UNIT(#297)
);
#299=(
MASS_UNIT()
NAMED_UNIT(*)
SI_UNIT(.KILO.,.GRAM.)
);
#300=MASS_MEASURE_WITH_UNIT(MASS_MEASURE(0.001),#299);
#301=DERIVED_UNIT((#295,#296));
#302=MEASURE_REPRESENTATION_ITEM('density measure',
POSITIVE_RATIO_MEASURE(2.7),#301);
#303=PROPERTY_DEFINITION_REPRESENTATION(#308,#305);
#304=PROPERTY_DEFINITION_REPRESENTATION(#309,#306);
#305=REPRESENTATION('material name',(#307),#506);
#306=REPRESENTATION('density',(#302),#506);
#307=DESCRIPTIVE_REPRESENTATION_ITEM('AW-6063','AW-6063');
#308=PROPERTY_DEFINITION('material property','material name',#516);
#309=PROPERTY_DEFINITION('material property','density of part',#516);
#310=DATE_TIME_ROLE('creation_date');
#311=APPLIED_DATE_AND_TIME_ASSIGNMENT(#312,#310,(#516));
#312=DATE_AND_TIME(#313,#314);
#313=CALENDAR_DATE(2016,7,6);
#314=LOCAL_TIME(0,0,0.,#315);
#315=COORDINATED_UNIVERSAL_TIME_OFFSET(0,0,.BEHIND.);
#316=AXIS2_PLACEMENT_3D('',#423,#342,#343);
#317=AXIS2_PLACEMENT_3D('',#424,#344,#345);
#318=AXIS2_PLACEMENT_3D('',#426,#346,#347);
#319=AXIS2_PLACEMENT_3D('',#429,#349,#350);
#320=AXIS2_PLACEMENT_3D('',#430,#351,#352);
#321=AXIS2_PLACEMENT_3D('',#432,#353,#354);
#322=AXIS2_PLACEMENT_3D('',#435,#356,#357);
#323=AXIS2_PLACEMENT_3D('',#436,#358,#359);
#324=AXIS2_PLACEMENT_3D('',#439,#360,#361);
#325=AXIS2_PLACEMENT_3D('',#443,#363,#364);
#326=AXIS2_PLACEMENT_3D('',#445,#366,#367);
#327=AXIS2_PLACEMENT_3D('',#451,#371,#372);
#328=AXIS2_PLACEMENT_3D('',#457,#376,#377);
#329=AXIS2_PLACEMENT_3D('',#459,#378,#379);
#330=AXIS2_PLACEMENT_3D('',#461,#380,#381);
#331=AXIS2_PLACEMENT_3D('',#463,#383,#384);
#332=AXIS2_PLACEMENT_3D('',#469,#388,#389);
#333=AXIS2_PLACEMENT_3D('',#475,#393,#394);
#334=AXIS2_PLACEMENT_3D('',#481,#398,#399);
#335=AXIS2_PLACEMENT_3D('',#483,#400,#401);
#336=AXIS2_PLACEMENT_3D('',#485,#402,#403);
#337=AXIS2_PLACEMENT_3D('',#487,#405,#406);
#338=AXIS2_PLACEMENT_3D('',#493,#410,#411);
#339=AXIS2_PLACEMENT_3D('',#499,#415,#416);
#340=AXIS2_PLACEMENT_3D('',#502,#419,#420);
#341=AXIS2_PLACEMENT_3D('',#503,#421,#422);
#342=DIRECTION('axis',(0.,0.,1.));
#343=DIRECTION('refdir',(1.,0.,0.));
#344=DIRECTION('center_axis',(-1.,0.,0.));
#345=DIRECTION('ref_axis',(0.,0.,1.));
#346=DIRECTION('center_axis',(1.,0.,0.));
#347=DIRECTION('ref_axis',(0.,0.,1.));
#348=DIRECTION('',(0.707106781186548,8.65956056235493E-17,0.707106781186547));
#349=DIRECTION('center_axis',(-1.,-3.70074341541719E-16,0.));
#350=DIRECTION('ref_axis',(0.,0.,1.));
#351=DIRECTION('center_axis',(-1.,0.,0.));
#352=DIRECTION('ref_axis',(0.,0.,1.));
#353=DIRECTION('center_axis',(1.,0.,0.));
#354=DIRECTION('ref_axis',(0.,0.,1.));
#355=DIRECTION('',(0.707106781186548,8.65956056235493E-17,0.707106781186547));
#356=DIRECTION('center_axis',(-1.,-3.70074341541719E-16,0.));
#357=DIRECTION('ref_axis',(0.,0.,1.));
#358=DIRECTION('center_axis',(0.,0.,1.));
#359=DIRECTION('ref_axis',(0.,-1.,0.));
#360=DIRECTION('center_axis',(0.,0.,-1.));
#361=DIRECTION('ref_axis',(0.,-1.,0.));
#362=DIRECTION('',(0.,0.,1.));
#363=DIRECTION('center_axis',(0.,0.,1.));
#364=DIRECTION('ref_axis',(0.,-1.,0.));
#365=DIRECTION('',(0.,0.,1.));
#366=DIRECTION('center_axis',(0.,1.,0.));
#367=DIRECTION('ref_axis',(-1.,0.,0.));
#368=DIRECTION('',(1.,0.,0.));
#369=DIRECTION('',(-1.,0.,0.));
#370=DIRECTION('',(0.,0.,1.));
#371=DIRECTION('center_axis',(0.422618261740699,0.90630778703665,0.));
#372=DIRECTION('ref_axis',(-0.90630778703665,0.422618261740699,0.));
#373=DIRECTION('',(0.90630778703665,-0.422618261740699,0.));
#374=DIRECTION('',(-0.90630778703665,0.422618261740699,0.));
#375=DIRECTION('',(0.,0.,1.));
#376=DIRECTION('center_axis',(0.,0.,1.));
#377=DIRECTION('ref_axis',(0.766044443118978,0.64278760968654,0.));
#378=DIRECTION('center_axis',(0.,0.,-1.));
#379=DIRECTION('ref_axis',(0.766044443118978,0.64278760968654,0.));
#380=DIRECTION('center_axis',(0.,0.,1.));
#381=DIRECTION('ref_axis',(0.766044443118978,0.64278760968654,0.));
#382=DIRECTION('',(0.,0.,1.));
#383=DIRECTION('center_axis',(-0.766044443118978,-0.64278760968654,0.));
#384=DIRECTION('ref_axis',(0.64278760968654,-0.766044443118978,0.));
#385=DIRECTION('',(-0.64278760968654,0.766044443118978,0.));
#386=DIRECTION('',(0.64278760968654,-0.766044443118978,0.));
#387=DIRECTION('',(0.,0.,1.));
#388=DIRECTION('center_axis',(-0.422618261740699,-0.90630778703665,0.));
#389=DIRECTION('ref_axis',(0.90630778703665,-0.422618261740699,0.));
#390=DIRECTION('',(-0.90630778703665,0.422618261740699,0.));
#391=DIRECTION('',(0.90630778703665,-0.422618261740699,0.));
#392=DIRECTION('',(0.,0.,1.));
#393=DIRECTION('center_axis',(1.80036166155431E-16,-1.,0.));
#394=DIRECTION('ref_axis',(1.,1.80036166155431E-16,0.));
#395=DIRECTION('',(-1.,-1.80036166155431E-16,0.));
#396=DIRECTION('',(1.,1.80036166155431E-16,0.));
#397=DIRECTION('',(0.,0.,1.));
#398=DIRECTION('center_axis',(0.,0.,1.));
#399=DIRECTION('ref_axis',(0.,1.,0.));
#400=DIRECTION('center_axis',(0.,0.,1.));
#401=DIRECTION('ref_axis',(0.,1.,0.));
#402=DIRECTION('center_axis',(0.,0.,-1.));
#403=DIRECTION('ref_axis',(0.,1.,0.));
#404=DIRECTION('',(0.,0.,1.));
#405=DIRECTION('center_axis',(1.,3.70074341541719E-16,0.));
#406=DIRECTION('ref_axis',(-3.70074341541719E-16,1.,0.));
#407=DIRECTION('',(3.70074341541719E-16,-1.,0.));
#408=DIRECTION('',(-3.70074341541719E-16,1.,0.));
#409=DIRECTION('',(0.,0.,1.));
#410=DIRECTION('center_axis',(7.40148683083435E-16,-1.,0.));
#411=DIRECTION('ref_axis',(1.,7.40148683083435E-16,0.));
#412=DIRECTION('',(-1.,-7.40148683083435E-16,0.));
#413=DIRECTION('',(1.,7.40148683083435E-16,0.));
#414=DIRECTION('',(0.,0.,1.));
#415=DIRECTION('center_axis',(-1.,0.,0.));
#416=DIRECTION('ref_axis',(0.,-1.,0.));
#417=DIRECTION('',(0.,1.,0.));
#418=DIRECTION('',(0.,-1.,0.));
#419=DIRECTION('center_axis',(0.,0.,1.));
#420=DIRECTION('ref_axis',(1.,0.,0.));
#421=DIRECTION('center_axis',(0.,0.,1.));
#422=DIRECTION('ref_axis',(1.,0.,0.));
#423=CARTESIAN_POINT('',(0.,0.,0.));
#424=CARTESIAN_POINT('Origin',(-9.66627099698221,0.250000000000001,15.));
#425=CARTESIAN_POINT('',(-10.6662709969822,0.250000000000001,11.));
#426=CARTESIAN_POINT('Origin',(-10.6662709969822,0.250000000000001,15.));
#427=CARTESIAN_POINT('',(-9.1662709969822,0.250000000000001,12.5));
#428=CARTESIAN_POINT('',(-9.66627099698221,0.250000000000001,12.));
#429=CARTESIAN_POINT('Origin',(-9.1662709969822,0.250000000000001,15.));
#430=CARTESIAN_POINT('Origin',(-9.66627099698221,0.250000000000001,335.));
#431=CARTESIAN_POINT('',(-10.6662709969822,0.250000000000001,331.));
#432=CARTESIAN_POINT('Origin',(-10.6662709969822,0.250000000000001,335.));
#433=CARTESIAN_POINT('',(-9.1662709969822,0.250000000000001,332.5));
#434=CARTESIAN_POINT('',(-9.66627099698221,0.250000000000001,332.));
#435=CARTESIAN_POINT('Origin',(-9.1662709969822,0.250000000000001,335.));
#436=CARTESIAN_POINT('Origin',(-10.1662709969822,9.75,0.));
#437=CARTESIAN_POINT('',(-10.6662709969822,9.75,0.));
#438=CARTESIAN_POINT('',(-10.1662709969822,10.25,0.));
#439=CARTESIAN_POINT('Origin',(-10.1662709969822,9.75,0.));
#440=CARTESIAN_POINT('',(-10.6662709969822,9.75,350.));
#441=CARTESIAN_POINT('',(-10.6662709969822,9.75,0.));
#442=CARTESIAN_POINT('',(-10.1662709969822,10.25,350.));
#443=CARTESIAN_POINT('Origin',(-10.1662709969822,9.75,350.));
#444=CARTESIAN_POINT('',(-10.1662709969822,10.25,0.));
#445=CARTESIAN_POINT('Origin',(10.1662709969822,10.25,0.));
#446=CARTESIAN_POINT('',(10.1662709969822,10.25,0.));
#447=CARTESIAN_POINT('',(-10.1662709969822,10.25,0.));
#448=CARTESIAN_POINT('',(10.1662709969822,10.25,350.));
#449=CARTESIAN_POINT('',(-10.1662709969822,10.25,350.));
#450=CARTESIAN_POINT('',(10.1662709969822,10.25,0.));
#451=CARTESIAN_POINT('Origin',(26.835584888681,2.47697127611134,0.));
#452=CARTESIAN_POINT('',(26.835584888681,2.47697127611134,0.));
#453=CARTESIAN_POINT('',(10.1662709969822,10.25,0.));
#454=CARTESIAN_POINT('',(26.835584888681,2.47697127611134,350.));
#455=CARTESIAN_POINT('',(10.1662709969822,10.25,350.));
#456=CARTESIAN_POINT('',(26.835584888681,2.47697127611134,0.));
#457=CARTESIAN_POINT('Origin',(25.7790392343293,0.211201808519715,0.));
#458=CARTESIAN_POINT('',(23.8639281265318,-1.39576721569663,0.));
#459=CARTESIAN_POINT('Origin',(25.7790392343293,0.211201808519715,0.));
#460=CARTESIAN_POINT('',(23.8639281265318,-1.39576721569663,350.));
#461=CARTESIAN_POINT('Origin',(25.7790392343293,0.211201808519715,350.));
#462=CARTESIAN_POINT('',(23.8639281265318,-1.39576721569663,0.));
#463=CARTESIAN_POINT('Origin',(18.8968068733843,4.52381738259301,0.));
#464=CARTESIAN_POINT('',(18.8968068733843,4.52381738259301,0.));
#465=CARTESIAN_POINT('',(23.8639281265318,-1.39576721569663,0.));
#466=CARTESIAN_POINT('',(18.8968068733843,4.52381738259301,350.));
#467=CARTESIAN_POINT('',(23.8639281265318,-1.39576721569663,350.));
#468=CARTESIAN_POINT('',(18.8968068733843,4.52381738259301,0.));
#469=CARTESIAN_POINT('Origin',(9.83372900301779,8.75,0.));
#470=CARTESIAN_POINT('',(9.83372900301779,8.75,0.));
#471=CARTESIAN_POINT('',(18.8968068733843,4.52381738259301,0.));
#472=CARTESIAN_POINT('',(9.83372900301779,8.75,350.));
#473=CARTESIAN_POINT('',(18.8968068733843,4.52381738259301,350.));
#474=CARTESIAN_POINT('',(9.83372900301779,8.75,0.));
#475=CARTESIAN_POINT('Origin',(-8.66627099698221,8.74999999999999,0.));
#476=CARTESIAN_POINT('',(-8.66627099698221,8.74999999999999,0.));
#477=CARTESIAN_POINT('',(9.83372900301779,8.75,0.));
#478=CARTESIAN_POINT('',(-8.66627099698221,8.74999999999999,350.));
#479=CARTESIAN_POINT('',(9.83372900301779,8.75,350.));
#480=CARTESIAN_POINT('',(-8.66627099698221,8.74999999999999,0.));
#481=CARTESIAN_POINT('Origin',(-8.66627099698221,8.24999999999999,0.));
#482=CARTESIAN_POINT('',(-9.16627099698221,8.24999999999999,0.));
#483=CARTESIAN_POINT('Origin',(-8.66627099698221,8.24999999999999,0.));
#484=CARTESIAN_POINT('',(-9.16627099698221,8.24999999999999,350.));
#485=CARTESIAN_POINT('Origin',(-8.66627099698221,8.24999999999999,350.));
#486=CARTESIAN_POINT('',(-9.16627099698221,8.24999999999999,0.));
#487=CARTESIAN_POINT('Origin',(-9.1662709969822,-9.75,0.));
#488=CARTESIAN_POINT('',(-9.1662709969822,-9.75,0.));
#489=CARTESIAN_POINT('',(-9.16627099698221,8.24999999999999,0.));
#490=CARTESIAN_POINT('',(-9.1662709969822,-9.75,350.));
#491=CARTESIAN_POINT('',(-9.16627099698221,8.24999999999999,350.));
#492=CARTESIAN_POINT('',(-9.1662709969822,-9.75,0.));
#493=CARTESIAN_POINT('Origin',(-10.6662709969822,-9.75,0.));
#494=CARTESIAN_POINT('',(-10.6662709969822,-9.75,0.));
#495=CARTESIAN_POINT('',(-9.1662709969822,-9.75,0.));
#496=CARTESIAN_POINT('',(-10.6662709969822,-9.75,350.));
#497=CARTESIAN_POINT('',(-9.1662709969822,-9.75,350.));
#498=CARTESIAN_POINT('',(-10.6662709969822,-9.75,0.));
#499=CARTESIAN_POINT('Origin',(-10.6662709969822,9.75,0.));
#500=CARTESIAN_POINT('',(-10.6662709969822,-9.75,0.));
#501=CARTESIAN_POINT('',(-10.6662709969822,-9.75,350.));
#502=CARTESIAN_POINT('Origin',(3.61806271929446,4.4688156066479,0.));
#503=CARTESIAN_POINT('Origin',(3.61806271929446,4.4688156066479,350.));
#504=UNCERTAINTY_MEASURE_WITH_UNIT(LENGTH_MEASURE(0.01),#508,
'DISTANCE_ACCURACY_VALUE',
'Maximum model space distance between geometric entities at asserted c
onnectivities');
#505=UNCERTAINTY_MEASURE_WITH_UNIT(LENGTH_MEASURE(0.01),#508,
'DISTANCE_ACCURACY_VALUE',
'Maximum model space distance between geometric entities at asserted c
onnectivities');
#506=(
GEOMETRIC_REPRESENTATION_CONTEXT(3)
GLOBAL_UNCERTAINTY_ASSIGNED_CONTEXT((#504))
GLOBAL_UNIT_ASSIGNED_CONTEXT((#508,#510,#511))
REPRESENTATION_CONTEXT('','3D')
);
#507=(
GEOMETRIC_REPRESENTATION_CONTEXT(3)
GLOBAL_UNCERTAINTY_ASSIGNED_CONTEXT((#505))
GLOBAL_UNIT_ASSIGNED_CONTEXT((#508,#510,#511))
REPRESENTATION_CONTEXT('','3D')
);
#508=(
LENGTH_UNIT()
NAMED_UNIT(*)
SI_UNIT(.MILLI.,.METRE.)
);
#509=(
LENGTH_UNIT()
NAMED_UNIT(*)
SI_UNIT(.CENTI.,.METRE.)
);
#510=(
NAMED_UNIT(*)
PLANE_ANGLE_UNIT()
SI_UNIT($,.RADIAN.)
);
#511=(
NAMED_UNIT(*)
SI_UNIT($,.STERADIAN.)
SOLID_ANGLE_UNIT()
);
#512=SHAPE_DEFINITION_REPRESENTATION(#513,#514);
#513=PRODUCT_DEFINITION_SHAPE('',$,#516);
#514=SHAPE_REPRESENTATION('',(#316),#506);
#515=PRODUCT_DEFINITION_CONTEXT('part definition',#520,'design');
#516=PRODUCT_DEFINITION('GTV-126','126 - uchwyyt listwowy  UA-TREX',#517,
#515);
#517=PRODUCT_DEFINITION_FORMATION('',$,#522);
#518=PRODUCT_RELATED_PRODUCT_CATEGORY('126 - uchwyyt listwowy  UA-TREX',
'126 - uchwyyt listwowy  UA-TREX',(#522));
#519=APPLICATION_PROTOCOL_DEFINITION('international standard',
'automotive_design',2009,#520);
#520=APPLICATION_CONTEXT(
'Core Data for Automotive Mechanical Design Process');
#521=PRODUCT_CONTEXT('part definition',#520,'mechanical');
#522=PRODUCT('GTV-126','126 - uchwyyt listwowy  UA-TREX',
'Handle UA-TREX',(#521));
#523=PRESENTATION_STYLE_ASSIGNMENT((#524));
#524=SURFACE_STYLE_USAGE(.BOTH.,#527);
#525=SURFACE_STYLE_RENDERING_WITH_PROPERTIES($,#531,(#526));
#526=SURFACE_STYLE_TRANSPARENT(0.);
#527=SURFACE_SIDE_STYLE('',(#528,#525));
#528=SURFACE_STYLE_FILL_AREA(#529);
#529=FILL_AREA_STYLE('',(#530));
#530=FILL_AREA_STYLE_COLOUR('',#531);
#531=COLOUR_RGB('',0.698039215686274,0.698039215686274,0.698039215686274);
ENDSEC;
END-ISO-10303-21;
