ISO-10303-21;
HEADER;
/* Generated by software containing ST-Developer
 * from STEP Tools, Inc. (www.steptools.com) 
 */

FILE_DESCRIPTION(
/* description */ (''),
/* implementation_level */ '2;1');

FILE_NAME(
/* name */ 
'D:\\$Workingspace\\Designs\\Meblowka\\uchwyty\\dzieci\X2\0119\X0\ce\\
UM-BUTTON.stp',
/* time_stamp */ '2019-01-28T10:23:06+01:00',
/* author */ ('tomaszw'),
/* organization */ (''),
/* preprocessor_version */ 'ST-DEVELOPER v17',
/* originating_system */ 'Autodesk Inventor 2019',
/* authorisation */ '');

FILE_SCHEMA (('AUTOMOTIVE_DESIGN { 1 0 10303 214 3 1 1 }'));
ENDSEC;

DATA;
#10=MECHANICAL_DESIGN_GEOMETRIC_PRESENTATION_REPRESENTATION('',(#13),#527);
#11=SHAPE_REPRESENTATION_RELATIONSHIP('SRR','None',#534,#12);
#12=ADVANCED_BREP_SHAPE_REPRESENTATION('',(#14),#526);
#13=STYLED_ITEM('',(#543),#14);
#14=MANIFOLD_SOLID_BREP('Solid1',#281);
#15=CONICAL_SURFACE('',#313,6.7,0.0349065850398866);
#16=CONICAL_SURFACE('',#317,0.8105,1.02974425867665);
#17=CONICAL_SURFACE('',#326,0.299999999999999,0.588002603547568);
#18=TOROIDAL_SURFACE('',#309,8.14853316221061,1.5);
#19=FACE_BOUND('',#58,.T.);
#20=FACE_BOUND('',#59,.T.);
#21=FACE_BOUND('',#60,.T.);
#22=FACE_BOUND('',#61,.T.);
#23=FACE_BOUND('',#65,.T.);
#24=FACE_BOUND('',#71,.T.);
#25=FACE_BOUND('',#72,.T.);
#26=FACE_BOUND('',#83,.T.);
#27=PLANE('',#304);
#28=PLANE('',#315);
#29=PLANE('',#323);
#30=PLANE('',#329);
#31=PLANE('',#332);
#32=PLANE('',#335);
#33=PLANE('',#338);
#34=PLANE('',#341);
#35=PLANE('',#344);
#36=FACE_OUTER_BOUND('',#56,.T.);
#37=FACE_OUTER_BOUND('',#57,.T.);
#38=FACE_OUTER_BOUND('',#62,.T.);
#39=FACE_OUTER_BOUND('',#63,.T.);
#40=FACE_OUTER_BOUND('',#64,.T.);
#41=FACE_OUTER_BOUND('',#66,.T.);
#42=FACE_OUTER_BOUND('',#67,.T.);
#43=FACE_OUTER_BOUND('',#68,.T.);
#44=FACE_OUTER_BOUND('',#69,.T.);
#45=FACE_OUTER_BOUND('',#70,.T.);
#46=FACE_OUTER_BOUND('',#73,.T.);
#47=FACE_OUTER_BOUND('',#74,.T.);
#48=FACE_OUTER_BOUND('',#75,.T.);
#49=FACE_OUTER_BOUND('',#76,.T.);
#50=FACE_OUTER_BOUND('',#77,.T.);
#51=FACE_OUTER_BOUND('',#78,.T.);
#52=FACE_OUTER_BOUND('',#79,.T.);
#53=FACE_OUTER_BOUND('',#80,.T.);
#54=FACE_OUTER_BOUND('',#81,.T.);
#55=FACE_OUTER_BOUND('',#82,.T.);
#56=EDGE_LOOP('',(#186,#187,#188,#189));
#57=EDGE_LOOP('',(#190));
#58=EDGE_LOOP('',(#191));
#59=EDGE_LOOP('',(#192));
#60=EDGE_LOOP('',(#193));
#61=EDGE_LOOP('',(#194));
#62=EDGE_LOOP('',(#195,#196,#197,#198));
#63=EDGE_LOOP('',(#199,#200,#201,#202));
#64=EDGE_LOOP('',(#203));
#65=EDGE_LOOP('',(#204));
#66=EDGE_LOOP('',(#205,#206,#207,#208));
#67=EDGE_LOOP('',(#209,#210,#211,#212,#213,#214));
#68=EDGE_LOOP('',(#215,#216));
#69=EDGE_LOOP('',(#217,#218,#219,#220,#221,#222));
#70=EDGE_LOOP('',(#223));
#71=EDGE_LOOP('',(#224,#225));
#72=EDGE_LOOP('',(#226,#227));
#73=EDGE_LOOP('',(#228,#229,#230,#231));
#74=EDGE_LOOP('',(#232));
#75=EDGE_LOOP('',(#233,#234,#235,#236));
#76=EDGE_LOOP('',(#237));
#77=EDGE_LOOP('',(#238,#239,#240,#241));
#78=EDGE_LOOP('',(#242));
#79=EDGE_LOOP('',(#243,#244,#245,#246));
#80=EDGE_LOOP('',(#247));
#81=EDGE_LOOP('',(#248,#249,#250,#251));
#82=EDGE_LOOP('',(#252));
#83=EDGE_LOOP('',(#253));
#84=LINE('',#450,#94);
#85=LINE('',#470,#95);
#86=LINE('',#479,#96);
#87=LINE('',#486,#97);
#88=LINE('',#497,#98);
#89=LINE('',#501,#99);
#90=LINE('',#506,#100);
#91=LINE('',#511,#101);
#92=LINE('',#516,#102);
#93=LINE('',#522,#103);
#94=VECTOR('',#351,16.);
#95=VECTOR('',#376,6.7);
#96=VECTOR('',#385,0.8105);
#97=VECTOR('',#394,1.621);
#98=VECTOR('',#407,0.299999999999999);
#99=VECTOR('',#412,3.5);
#100=VECTOR('',#419,3.5);
#101=VECTOR('',#426,3.5);
#102=VECTOR('',#433,3.5);
#103=VECTOR('',#442,21.);
#104=CIRCLE('',#302,16.);
#105=CIRCLE('',#303,16.);
#106=CIRCLE('',#305,3.5);
#107=CIRCLE('',#306,3.5);
#108=CIRCLE('',#307,3.5);
#109=CIRCLE('',#308,3.5);
#110=CIRCLE('',#310,6.64944692168197);
#111=CIRCLE('',#311,1.5);
#112=CIRCLE('',#312,8.14853316221061);
#113=CIRCLE('',#314,6.21809338101388);
#114=CIRCLE('',#316,21.);
#115=CIRCLE('',#318,1.621);
#116=CIRCLE('',#319,1.621);
#117=CIRCLE('',#321,1.621);
#118=CIRCLE('',#322,1.621);
#119=CIRCLE('',#324,0.1);
#120=CIRCLE('',#325,0.1);
#121=CIRCLE('',#327,0.499999999999997);
#122=CIRCLE('',#328,0.499999999999997);
#123=CIRCLE('',#331,3.5);
#124=CIRCLE('',#334,3.5);
#125=CIRCLE('',#337,3.5);
#126=CIRCLE('',#340,3.5);
#127=CIRCLE('',#343,21.);
#128=VERTEX_POINT('',#447);
#129=VERTEX_POINT('',#449);
#130=VERTEX_POINT('',#453);
#131=VERTEX_POINT('',#455);
#132=VERTEX_POINT('',#457);
#133=VERTEX_POINT('',#459);
#134=VERTEX_POINT('',#462);
#135=VERTEX_POINT('',#464);
#136=VERTEX_POINT('',#468);
#137=VERTEX_POINT('',#472);
#138=VERTEX_POINT('',#475);
#139=VERTEX_POINT('',#476);
#140=VERTEX_POINT('',#478);
#141=VERTEX_POINT('',#482);
#142=VERTEX_POINT('',#483);
#143=VERTEX_POINT('',#488);
#144=VERTEX_POINT('',#489);
#145=VERTEX_POINT('',#493);
#146=VERTEX_POINT('',#494);
#147=VERTEX_POINT('',#500);
#148=VERTEX_POINT('',#505);
#149=VERTEX_POINT('',#510);
#150=VERTEX_POINT('',#515);
#151=VERTEX_POINT('',#520);
#152=EDGE_CURVE('',#128,#128,#104,.T.);
#153=EDGE_CURVE('',#128,#129,#84,.T.);
#154=EDGE_CURVE('',#129,#129,#105,.T.);
#155=EDGE_CURVE('',#130,#130,#106,.T.);
#156=EDGE_CURVE('',#131,#131,#107,.T.);
#157=EDGE_CURVE('',#132,#132,#108,.T.);
#158=EDGE_CURVE('',#133,#133,#109,.T.);
#159=EDGE_CURVE('',#134,#134,#110,.T.);
#160=EDGE_CURVE('',#134,#135,#111,.T.);
#161=EDGE_CURVE('',#135,#135,#112,.T.);
#162=EDGE_CURVE('',#136,#136,#113,.T.);
#163=EDGE_CURVE('',#136,#134,#85,.T.);
#164=EDGE_CURVE('',#137,#137,#114,.T.);
#165=EDGE_CURVE('',#138,#139,#115,.T.);
#166=EDGE_CURVE('',#139,#140,#86,.T.);
#167=EDGE_CURVE('',#139,#138,#116,.T.);
#168=EDGE_CURVE('',#141,#142,#117,.T.);
#169=EDGE_CURVE('',#142,#141,#118,.T.);
#170=EDGE_CURVE('',#142,#139,#87,.T.);
#171=EDGE_CURVE('',#143,#144,#119,.T.);
#172=EDGE_CURVE('',#144,#143,#120,.T.);
#173=EDGE_CURVE('',#145,#146,#121,.T.);
#174=EDGE_CURVE('',#146,#145,#122,.T.);
#175=EDGE_CURVE('',#146,#144,#88,.T.);
#176=EDGE_CURVE('',#130,#147,#89,.T.);
#177=EDGE_CURVE('',#147,#147,#123,.T.);
#178=EDGE_CURVE('',#131,#148,#90,.T.);
#179=EDGE_CURVE('',#148,#148,#124,.T.);
#180=EDGE_CURVE('',#132,#149,#91,.T.);
#181=EDGE_CURVE('',#149,#149,#125,.T.);
#182=EDGE_CURVE('',#133,#150,#92,.T.);
#183=EDGE_CURVE('',#150,#150,#126,.T.);
#184=EDGE_CURVE('',#151,#151,#127,.T.);
#185=EDGE_CURVE('',#151,#137,#93,.T.);
#186=ORIENTED_EDGE('',*,*,#152,.F.);
#187=ORIENTED_EDGE('',*,*,#153,.T.);
#188=ORIENTED_EDGE('',*,*,#154,.T.);
#189=ORIENTED_EDGE('',*,*,#153,.F.);
#190=ORIENTED_EDGE('',*,*,#154,.F.);
#191=ORIENTED_EDGE('',*,*,#155,.F.);
#192=ORIENTED_EDGE('',*,*,#156,.F.);
#193=ORIENTED_EDGE('',*,*,#157,.F.);
#194=ORIENTED_EDGE('',*,*,#158,.F.);
#195=ORIENTED_EDGE('',*,*,#159,.T.);
#196=ORIENTED_EDGE('',*,*,#160,.T.);
#197=ORIENTED_EDGE('',*,*,#161,.T.);
#198=ORIENTED_EDGE('',*,*,#160,.F.);
#199=ORIENTED_EDGE('',*,*,#162,.T.);
#200=ORIENTED_EDGE('',*,*,#163,.T.);
#201=ORIENTED_EDGE('',*,*,#159,.F.);
#202=ORIENTED_EDGE('',*,*,#163,.F.);
#203=ORIENTED_EDGE('',*,*,#164,.T.);
#204=ORIENTED_EDGE('',*,*,#161,.F.);
#205=ORIENTED_EDGE('',*,*,#165,.T.);
#206=ORIENTED_EDGE('',*,*,#166,.T.);
#207=ORIENTED_EDGE('',*,*,#166,.F.);
#208=ORIENTED_EDGE('',*,*,#167,.T.);
#209=ORIENTED_EDGE('',*,*,#168,.F.);
#210=ORIENTED_EDGE('',*,*,#169,.F.);
#211=ORIENTED_EDGE('',*,*,#170,.T.);
#212=ORIENTED_EDGE('',*,*,#165,.F.);
#213=ORIENTED_EDGE('',*,*,#167,.F.);
#214=ORIENTED_EDGE('',*,*,#170,.F.);
#215=ORIENTED_EDGE('',*,*,#171,.F.);
#216=ORIENTED_EDGE('',*,*,#172,.F.);
#217=ORIENTED_EDGE('',*,*,#173,.F.);
#218=ORIENTED_EDGE('',*,*,#174,.F.);
#219=ORIENTED_EDGE('',*,*,#175,.T.);
#220=ORIENTED_EDGE('',*,*,#172,.T.);
#221=ORIENTED_EDGE('',*,*,#171,.T.);
#222=ORIENTED_EDGE('',*,*,#175,.F.);
#223=ORIENTED_EDGE('',*,*,#162,.F.);
#224=ORIENTED_EDGE('',*,*,#168,.T.);
#225=ORIENTED_EDGE('',*,*,#169,.T.);
#226=ORIENTED_EDGE('',*,*,#173,.T.);
#227=ORIENTED_EDGE('',*,*,#174,.T.);
#228=ORIENTED_EDGE('',*,*,#155,.T.);
#229=ORIENTED_EDGE('',*,*,#176,.T.);
#230=ORIENTED_EDGE('',*,*,#177,.T.);
#231=ORIENTED_EDGE('',*,*,#176,.F.);
#232=ORIENTED_EDGE('',*,*,#177,.F.);
#233=ORIENTED_EDGE('',*,*,#156,.T.);
#234=ORIENTED_EDGE('',*,*,#178,.T.);
#235=ORIENTED_EDGE('',*,*,#179,.T.);
#236=ORIENTED_EDGE('',*,*,#178,.F.);
#237=ORIENTED_EDGE('',*,*,#179,.F.);
#238=ORIENTED_EDGE('',*,*,#157,.T.);
#239=ORIENTED_EDGE('',*,*,#180,.T.);
#240=ORIENTED_EDGE('',*,*,#181,.T.);
#241=ORIENTED_EDGE('',*,*,#180,.F.);
#242=ORIENTED_EDGE('',*,*,#181,.F.);
#243=ORIENTED_EDGE('',*,*,#158,.T.);
#244=ORIENTED_EDGE('',*,*,#182,.T.);
#245=ORIENTED_EDGE('',*,*,#183,.T.);
#246=ORIENTED_EDGE('',*,*,#182,.F.);
#247=ORIENTED_EDGE('',*,*,#183,.F.);
#248=ORIENTED_EDGE('',*,*,#184,.F.);
#249=ORIENTED_EDGE('',*,*,#185,.T.);
#250=ORIENTED_EDGE('',*,*,#164,.F.);
#251=ORIENTED_EDGE('',*,*,#185,.F.);
#252=ORIENTED_EDGE('',*,*,#184,.T.);
#253=ORIENTED_EDGE('',*,*,#152,.T.);
#254=CYLINDRICAL_SURFACE('',#301,16.);
#255=CYLINDRICAL_SURFACE('',#320,1.621);
#256=CYLINDRICAL_SURFACE('',#330,3.5);
#257=CYLINDRICAL_SURFACE('',#333,3.5);
#258=CYLINDRICAL_SURFACE('',#336,3.5);
#259=CYLINDRICAL_SURFACE('',#339,3.5);
#260=CYLINDRICAL_SURFACE('',#342,21.);
#261=ADVANCED_FACE('',(#36),#254,.F.);
#262=ADVANCED_FACE('',(#37,#19,#20,#21,#22),#27,.T.);
#263=ADVANCED_FACE('',(#38),#18,.F.);
#264=ADVANCED_FACE('',(#39),#15,.T.);
#265=ADVANCED_FACE('',(#40,#23),#28,.F.);
#266=ADVANCED_FACE('',(#41),#16,.F.);
#267=ADVANCED_FACE('',(#42),#255,.F.);
#268=ADVANCED_FACE('',(#43),#29,.T.);
#269=ADVANCED_FACE('',(#44),#17,.T.);
#270=ADVANCED_FACE('',(#45,#24,#25),#30,.F.);
#271=ADVANCED_FACE('',(#46),#256,.F.);
#272=ADVANCED_FACE('',(#47),#31,.T.);
#273=ADVANCED_FACE('',(#48),#257,.F.);
#274=ADVANCED_FACE('',(#49),#32,.T.);
#275=ADVANCED_FACE('',(#50),#258,.F.);
#276=ADVANCED_FACE('',(#51),#33,.T.);
#277=ADVANCED_FACE('',(#52),#259,.F.);
#278=ADVANCED_FACE('',(#53),#34,.T.);
#279=ADVANCED_FACE('',(#54),#260,.T.);
#280=ADVANCED_FACE('',(#55,#26),#35,.T.);
#281=CLOSED_SHELL('',(#261,#262,#263,#264,#265,#266,#267,#268,#269,#270,
#271,#272,#273,#274,#275,#276,#277,#278,#279,#280));
#282=DERIVED_UNIT_ELEMENT(#284,1.);
#283=DERIVED_UNIT_ELEMENT(#529,3.);
#284=(
MASS_UNIT()
NAMED_UNIT(*)
SI_UNIT($,.GRAM.)
);
#285=DERIVED_UNIT((#282,#283));
#286=MEASURE_REPRESENTATION_ITEM('density measure',
POSITIVE_RATIO_MEASURE(1.),#285);
#287=PROPERTY_DEFINITION_REPRESENTATION(#292,#289);
#288=PROPERTY_DEFINITION_REPRESENTATION(#293,#290);
#289=REPRESENTATION('material name',(#291),#526);
#290=REPRESENTATION('density',(#286),#526);
#291=DESCRIPTIVE_REPRESENTATION_ITEM('Generic','Generic');
#292=PROPERTY_DEFINITION('material property','material name',#536);
#293=PROPERTY_DEFINITION('material property','density of part',#536);
#294=DATE_TIME_ROLE('creation_date');
#295=APPLIED_DATE_AND_TIME_ASSIGNMENT(#296,#294,(#536));
#296=DATE_AND_TIME(#297,#298);
#297=CALENDAR_DATE(2019,4,1);
#298=LOCAL_TIME(13,3,0.,#299);
#299=COORDINATED_UNIVERSAL_TIME_OFFSET(0,0,.BEHIND.);
#300=AXIS2_PLACEMENT_3D('placement',#445,#345,#346);
#301=AXIS2_PLACEMENT_3D('',#446,#347,#348);
#302=AXIS2_PLACEMENT_3D('',#448,#349,#350);
#303=AXIS2_PLACEMENT_3D('',#451,#352,#353);
#304=AXIS2_PLACEMENT_3D('',#452,#354,#355);
#305=AXIS2_PLACEMENT_3D('',#454,#356,#357);
#306=AXIS2_PLACEMENT_3D('',#456,#358,#359);
#307=AXIS2_PLACEMENT_3D('',#458,#360,#361);
#308=AXIS2_PLACEMENT_3D('',#460,#362,#363);
#309=AXIS2_PLACEMENT_3D('',#461,#364,#365);
#310=AXIS2_PLACEMENT_3D('',#463,#366,#367);
#311=AXIS2_PLACEMENT_3D('',#465,#368,#369);
#312=AXIS2_PLACEMENT_3D('',#466,#370,#371);
#313=AXIS2_PLACEMENT_3D('',#467,#372,#373);
#314=AXIS2_PLACEMENT_3D('',#469,#374,#375);
#315=AXIS2_PLACEMENT_3D('',#471,#377,#378);
#316=AXIS2_PLACEMENT_3D('',#473,#379,#380);
#317=AXIS2_PLACEMENT_3D('',#474,#381,#382);
#318=AXIS2_PLACEMENT_3D('',#477,#383,#384);
#319=AXIS2_PLACEMENT_3D('',#480,#386,#387);
#320=AXIS2_PLACEMENT_3D('',#481,#388,#389);
#321=AXIS2_PLACEMENT_3D('',#484,#390,#391);
#322=AXIS2_PLACEMENT_3D('',#485,#392,#393);
#323=AXIS2_PLACEMENT_3D('',#487,#395,#396);
#324=AXIS2_PLACEMENT_3D('',#490,#397,#398);
#325=AXIS2_PLACEMENT_3D('',#491,#399,#400);
#326=AXIS2_PLACEMENT_3D('',#492,#401,#402);
#327=AXIS2_PLACEMENT_3D('',#495,#403,#404);
#328=AXIS2_PLACEMENT_3D('',#496,#405,#406);
#329=AXIS2_PLACEMENT_3D('',#498,#408,#409);
#330=AXIS2_PLACEMENT_3D('',#499,#410,#411);
#331=AXIS2_PLACEMENT_3D('',#502,#413,#414);
#332=AXIS2_PLACEMENT_3D('',#503,#415,#416);
#333=AXIS2_PLACEMENT_3D('',#504,#417,#418);
#334=AXIS2_PLACEMENT_3D('',#507,#420,#421);
#335=AXIS2_PLACEMENT_3D('',#508,#422,#423);
#336=AXIS2_PLACEMENT_3D('',#509,#424,#425);
#337=AXIS2_PLACEMENT_3D('',#512,#427,#428);
#338=AXIS2_PLACEMENT_3D('',#513,#429,#430);
#339=AXIS2_PLACEMENT_3D('',#514,#431,#432);
#340=AXIS2_PLACEMENT_3D('',#517,#434,#435);
#341=AXIS2_PLACEMENT_3D('',#518,#436,#437);
#342=AXIS2_PLACEMENT_3D('',#519,#438,#439);
#343=AXIS2_PLACEMENT_3D('',#521,#440,#441);
#344=AXIS2_PLACEMENT_3D('',#523,#443,#444);
#345=DIRECTION('axis',(0.,0.,1.));
#346=DIRECTION('refdir',(1.,0.,0.));
#347=DIRECTION('center_axis',(0.,0.,-1.));
#348=DIRECTION('ref_axis',(-1.,0.,0.));
#349=DIRECTION('center_axis',(0.,0.,-1.));
#350=DIRECTION('ref_axis',(-1.,0.,0.));
#351=DIRECTION('',(0.,0.,-1.));
#352=DIRECTION('center_axis',(0.,0.,-1.));
#353=DIRECTION('ref_axis',(-1.,0.,0.));
#354=DIRECTION('center_axis',(0.,0.,1.));
#355=DIRECTION('ref_axis',(1.,0.,0.));
#356=DIRECTION('center_axis',(0.,0.,1.));
#357=DIRECTION('ref_axis',(-1.,0.,0.));
#358=DIRECTION('center_axis',(0.,0.,1.));
#359=DIRECTION('ref_axis',(-1.,0.,0.));
#360=DIRECTION('center_axis',(0.,0.,1.));
#361=DIRECTION('ref_axis',(-1.,0.,0.));
#362=DIRECTION('center_axis',(0.,0.,1.));
#363=DIRECTION('ref_axis',(-1.,0.,0.));
#364=DIRECTION('center_axis',(0.,0.,1.));
#365=DIRECTION('ref_axis',(1.,0.,0.));
#366=DIRECTION('center_axis',(0.,0.,1.));
#367=DIRECTION('ref_axis',(1.,-6.12323399573677E-17,0.));
#368=DIRECTION('center_axis',(1.22464679914735E-16,-1.,0.));
#369=DIRECTION('ref_axis',(-1.,-1.22464679914735E-16,0.));
#370=DIRECTION('center_axis',(0.,0.,-1.));
#371=DIRECTION('ref_axis',(1.,0.,0.));
#372=DIRECTION('center_axis',(0.,0.,1.));
#373=DIRECTION('ref_axis',(1.,0.,0.));
#374=DIRECTION('center_axis',(0.,0.,1.));
#375=DIRECTION('ref_axis',(1.,0.,0.));
#376=DIRECTION('',(-0.034899496702501,4.27395569285714E-18,0.999390827019096));
#377=DIRECTION('center_axis',(0.,0.,1.));
#378=DIRECTION('ref_axis',(1.,0.,0.));
#379=DIRECTION('center_axis',(0.,0.,-1.));
#380=DIRECTION('ref_axis',(-1.,0.,0.));
#381=DIRECTION('center_axis',(0.,0.,-1.));
#382=DIRECTION('ref_axis',(-1.,0.,0.));
#383=DIRECTION('center_axis',(0.,0.,-1.));
#384=DIRECTION('ref_axis',(-1.,0.,0.));
#385=DIRECTION('',(-0.857167300702112,1.04972719113862E-16,0.515038074910054));
#386=DIRECTION('center_axis',(0.,0.,-1.));
#387=DIRECTION('ref_axis',(-1.,0.,0.));
#388=DIRECTION('center_axis',(0.,0.,-1.));
#389=DIRECTION('ref_axis',(-1.,0.,0.));
#390=DIRECTION('center_axis',(0.,0.,1.));
#391=DIRECTION('ref_axis',(-1.,0.,0.));
#392=DIRECTION('center_axis',(0.,0.,1.));
#393=DIRECTION('ref_axis',(-1.,0.,0.));
#394=DIRECTION('',(0.,0.,1.));
#395=DIRECTION('center_axis',(-9.25185853854296E-16,0.,-1.));
#396=DIRECTION('ref_axis',(-1.,0.,9.25185853854296E-16));
#397=DIRECTION('center_axis',(9.25185853854296E-16,0.,1.));
#398=DIRECTION('ref_axis',(1.,0.,-9.25185853854296E-16));
#399=DIRECTION('center_axis',(9.25185853854296E-16,0.,1.));
#400=DIRECTION('ref_axis',(1.,0.,-9.25185853854296E-16));
#401=DIRECTION('center_axis',(9.25185853854296E-16,0.,1.));
#402=DIRECTION('ref_axis',(1.,0.,-9.58536535029768E-16));
#403=DIRECTION('center_axis',(0.,0.,1.));
#404=DIRECTION('ref_axis',(1.,0.,-9.58536535029767E-16));
#405=DIRECTION('center_axis',(0.,0.,1.));
#406=DIRECTION('ref_axis',(1.,0.,-9.58536535029767E-16));
#407=DIRECTION('',(0.554700196225228,6.79311819793636E-17,-0.832050294337844));
#408=DIRECTION('center_axis',(0.,0.,1.));
#409=DIRECTION('ref_axis',(1.,0.,0.));
#410=DIRECTION('center_axis',(0.,0.,-1.));
#411=DIRECTION('ref_axis',(-1.,0.,0.));
#412=DIRECTION('',(0.,0.,-1.));
#413=DIRECTION('center_axis',(0.,0.,-1.));
#414=DIRECTION('ref_axis',(-1.,0.,0.));
#415=DIRECTION('center_axis',(0.,0.,1.));
#416=DIRECTION('ref_axis',(1.,0.,0.));
#417=DIRECTION('center_axis',(0.,0.,-1.));
#418=DIRECTION('ref_axis',(-1.,0.,0.));
#419=DIRECTION('',(0.,0.,-1.));
#420=DIRECTION('center_axis',(0.,0.,-1.));
#421=DIRECTION('ref_axis',(-1.,0.,0.));
#422=DIRECTION('center_axis',(0.,0.,1.));
#423=DIRECTION('ref_axis',(1.,0.,0.));
#424=DIRECTION('center_axis',(0.,0.,-1.));
#425=DIRECTION('ref_axis',(-1.,0.,0.));
#426=DIRECTION('',(0.,0.,-1.));
#427=DIRECTION('center_axis',(0.,0.,-1.));
#428=DIRECTION('ref_axis',(-1.,0.,0.));
#429=DIRECTION('center_axis',(0.,0.,1.));
#430=DIRECTION('ref_axis',(1.,0.,0.));
#431=DIRECTION('center_axis',(0.,0.,-1.));
#432=DIRECTION('ref_axis',(-1.,0.,0.));
#433=DIRECTION('',(0.,0.,-1.));
#434=DIRECTION('center_axis',(0.,0.,-1.));
#435=DIRECTION('ref_axis',(-1.,0.,0.));
#436=DIRECTION('center_axis',(0.,0.,1.));
#437=DIRECTION('ref_axis',(1.,0.,0.));
#438=DIRECTION('center_axis',(0.,0.,1.));
#439=DIRECTION('ref_axis',(-1.,0.,0.));
#440=DIRECTION('center_axis',(0.,0.,1.));
#441=DIRECTION('ref_axis',(-1.,0.,0.));
#442=DIRECTION('',(0.,0.,-1.));
#443=DIRECTION('center_axis',(0.,0.,1.));
#444=DIRECTION('ref_axis',(1.,0.,0.));
#445=CARTESIAN_POINT('',(0.,0.,0.));
#446=CARTESIAN_POINT('Origin',(0.,0.,10.5));
#447=CARTESIAN_POINT('',(16.,1.95943487863577E-15,10.5));
#448=CARTESIAN_POINT('Origin',(0.,0.,10.5));
#449=CARTESIAN_POINT('',(16.,1.95943487863577E-15,9.3));
#450=CARTESIAN_POINT('',(16.,-1.95943487863577E-15,10.5));
#451=CARTESIAN_POINT('Origin',(0.,0.,9.3));
#452=CARTESIAN_POINT('Origin',(-1.55106502066776E-15,-2.31296463463574E-16,
9.3));
#453=CARTESIAN_POINT('',(-2.5,-6.,9.3));
#454=CARTESIAN_POINT('Origin',(-6.,-6.,9.3));
#455=CARTESIAN_POINT('',(-2.5,6.,9.3));
#456=CARTESIAN_POINT('Origin',(-6.,6.,9.3));
#457=CARTESIAN_POINT('',(9.5,6.,9.3));
#458=CARTESIAN_POINT('Origin',(6.,6.,9.3));
#459=CARTESIAN_POINT('',(9.5,-6.,9.3));
#460=CARTESIAN_POINT('Origin',(6.,-6.,9.3));
#461=CARTESIAN_POINT('Origin',(0.,0.,-1.5));
#462=CARTESIAN_POINT('',(-6.64944692168197,0.,-1.44765075494625));
#463=CARTESIAN_POINT('Origin',(0.,4.07161194436902E-16,-1.44765075494625));
#464=CARTESIAN_POINT('',(-8.14853316221061,9.97907505484728E-16,0.));
#465=CARTESIAN_POINT('Origin',(-8.14853316221061,-9.97907505484728E-16,
-1.5));
#466=CARTESIAN_POINT('Origin',(0.,0.,0.));
#467=CARTESIAN_POINT('Origin',(0.,0.,0.));
#468=CARTESIAN_POINT('',(-6.21809338101388,-7.61496815585799E-16,-13.8));
#469=CARTESIAN_POINT('Origin',(0.,0.,-13.8));
#470=CARTESIAN_POINT('',(-6.7,8.20513355428727E-16,0.));
#471=CARTESIAN_POINT('Origin',(-9.19216697549299E-16,0.,0.));
#472=CARTESIAN_POINT('',(21.,2.57175827820944E-15,0.));
#473=CARTESIAN_POINT('Origin',(0.,0.,0.));
#474=CARTESIAN_POINT('Origin',(0.,0.,-1.51300246827816));
#475=CARTESIAN_POINT('',(-1.621,0.,-2.));
#476=CARTESIAN_POINT('',(1.621,-1.98515246141786E-16,-2.));
#477=CARTESIAN_POINT('Origin',(0.,0.,-2.));
#478=CARTESIAN_POINT('',(0.,0.,-1.02600493655632));
#479=CARTESIAN_POINT('',(0.8105,-9.9257623070893E-17,-1.51300246827816));
#480=CARTESIAN_POINT('Origin',(0.,0.,-2.));
#481=CARTESIAN_POINT('Origin',(0.,0.,-7.9));
#482=CARTESIAN_POINT('',(-1.621,0.,-13.8));
#483=CARTESIAN_POINT('',(1.621,-1.98515246141786E-16,-13.8));
#484=CARTESIAN_POINT('Origin',(0.,0.,-13.8));
#485=CARTESIAN_POINT('Origin',(0.,0.,-13.8));
#486=CARTESIAN_POINT('',(1.621,-1.98515246141786E-16,-7.9));
#487=CARTESIAN_POINT('Origin',(4.61809338101388,0.,-14.4));
#488=CARTESIAN_POINT('',(4.61809338101388,0.,-14.4));
#489=CARTESIAN_POINT('',(4.41809338101388,-1.22464679914735E-17,-14.4));
#490=CARTESIAN_POINT('Origin',(4.51809338101388,0.,-14.4));
#491=CARTESIAN_POINT('Origin',(4.51809338101388,0.,-14.4));
#492=CARTESIAN_POINT('Origin',(4.51809338101388,0.,-14.1));
#493=CARTESIAN_POINT('',(5.01809338101388,0.,-13.8));
#494=CARTESIAN_POINT('',(4.01809338101388,-6.12323399573673E-17,-13.8));
#495=CARTESIAN_POINT('Origin',(4.51809338101388,0.,-13.8));
#496=CARTESIAN_POINT('Origin',(4.51809338101388,0.,-13.8));
#497=CARTESIAN_POINT('',(4.21809338101388,-3.67394039744205E-17,-14.1));
#498=CARTESIAN_POINT('Origin',(3.44550994699945E-16,0.,-13.8));
#499=CARTESIAN_POINT('Origin',(-6.,-6.,10.5));
#500=CARTESIAN_POINT('',(-2.5,-6.,8.3));
#501=CARTESIAN_POINT('',(-2.5,-6.,10.5));
#502=CARTESIAN_POINT('Origin',(-6.,-6.,8.3));
#503=CARTESIAN_POINT('Origin',(-6.,-6.,8.3));
#504=CARTESIAN_POINT('Origin',(-6.,6.,10.5));
#505=CARTESIAN_POINT('',(-2.5,6.,8.3));
#506=CARTESIAN_POINT('',(-2.5,6.,10.5));
#507=CARTESIAN_POINT('Origin',(-6.,6.,8.3));
#508=CARTESIAN_POINT('Origin',(-6.,6.,8.3));
#509=CARTESIAN_POINT('Origin',(6.,6.,10.5));
#510=CARTESIAN_POINT('',(9.5,6.,8.3));
#511=CARTESIAN_POINT('',(9.5,6.,10.5));
#512=CARTESIAN_POINT('Origin',(6.,6.,8.3));
#513=CARTESIAN_POINT('Origin',(6.,6.,8.3));
#514=CARTESIAN_POINT('Origin',(6.,-6.,10.5));
#515=CARTESIAN_POINT('',(9.5,-6.,8.3));
#516=CARTESIAN_POINT('',(9.5,-6.,10.5));
#517=CARTESIAN_POINT('Origin',(6.,-6.,8.3));
#518=CARTESIAN_POINT('Origin',(6.,-6.,8.3));
#519=CARTESIAN_POINT('Origin',(0.,0.,0.));
#520=CARTESIAN_POINT('',(21.,2.57175827820944E-15,10.5));
#521=CARTESIAN_POINT('Origin',(0.,0.,10.5));
#522=CARTESIAN_POINT('',(21.,2.57175827820944E-15,0.));
#523=CARTESIAN_POINT('Origin',(-9.19216697549299E-16,0.,10.5));
#524=UNCERTAINTY_MEASURE_WITH_UNIT(LENGTH_MEASURE(0.01),#528,
'DISTANCE_ACCURACY_VALUE',
'Maximum model space distance between geometric entities at asserted c
onnectivities');
#525=UNCERTAINTY_MEASURE_WITH_UNIT(LENGTH_MEASURE(0.01),#528,
'DISTANCE_ACCURACY_VALUE',
'Maximum model space distance between geometric entities at asserted c
onnectivities');
#526=(
GEOMETRIC_REPRESENTATION_CONTEXT(3)
GLOBAL_UNCERTAINTY_ASSIGNED_CONTEXT((#524))
GLOBAL_UNIT_ASSIGNED_CONTEXT((#528,#531,#530))
REPRESENTATION_CONTEXT('','3D')
);
#527=(
GEOMETRIC_REPRESENTATION_CONTEXT(3)
GLOBAL_UNCERTAINTY_ASSIGNED_CONTEXT((#525))
GLOBAL_UNIT_ASSIGNED_CONTEXT((#528,#531,#530))
REPRESENTATION_CONTEXT('','3D')
);
#528=(
LENGTH_UNIT()
NAMED_UNIT(*)
SI_UNIT(.MILLI.,.METRE.)
);
#529=(
LENGTH_UNIT()
NAMED_UNIT(*)
SI_UNIT(.CENTI.,.METRE.)
);
#530=(
NAMED_UNIT(*)
SI_UNIT($,.STERADIAN.)
SOLID_ANGLE_UNIT()
);
#531=(
NAMED_UNIT(*)
PLANE_ANGLE_UNIT()
SI_UNIT($,.RADIAN.)
);
#532=SHAPE_DEFINITION_REPRESENTATION(#533,#534);
#533=PRODUCT_DEFINITION_SHAPE('',$,#536);
#534=SHAPE_REPRESENTATION('',(#300),#526);
#535=PRODUCT_DEFINITION_CONTEXT('part definition',#540,'design');
#536=PRODUCT_DEFINITION('UM-BUTTON','UM-BUTTON',#537,#535);
#537=PRODUCT_DEFINITION_FORMATION('',$,#542);
#538=PRODUCT_RELATED_PRODUCT_CATEGORY('UM-BUTTON','UM-BUTTON',(#542));
#539=APPLICATION_PROTOCOL_DEFINITION('international standard',
'automotive_design',2009,#540);
#540=APPLICATION_CONTEXT(
'Core Data for Automotive Mechanical Design Process');
#541=PRODUCT_CONTEXT('part definition',#540,'mechanical');
#542=PRODUCT('UM-BUTTON','UM-BUTTON',$,(#541));
#543=PRESENTATION_STYLE_ASSIGNMENT((#544));
#544=SURFACE_STYLE_USAGE(.BOTH.,#545);
#545=SURFACE_SIDE_STYLE('',(#546));
#546=SURFACE_STYLE_FILL_AREA(#547);
#547=FILL_AREA_STYLE('',(#548));
#548=FILL_AREA_STYLE_COLOUR('',#549);
#549=COLOUR_RGB('',0.749019607843137,0.749019607843137,0.749019607843137);
ENDSEC;
END-ISO-10303-21;
