ISO-10303-21;
HEADER;
/* Generated by software containing ST-Developer
 * from STEP Tools, Inc. (www.steptools.com) 
 */

FILE_DESCRIPTION(
/* description */ (''),
/* implementation_level */ '2;1');

FILE_NAME(
/* name */ 'UZ-NORD-096.stp',
/* time_stamp */ '2023-08-25T12:51:37+02:00',
/* author */ ('tomaszw'),
/* organization */ (''),
/* preprocessor_version */ 'ST-DEVELOPER v19.2',
/* originating_system */ 'Autodesk Inventor 2023',
/* authorisation */ '');

FILE_SCHEMA (('AUTOMOTIVE_DESIGN { 1 0 10303 214 3 1 1 }'));
ENDSEC;

DATA;
#10=MECHANICAL_DESIGN_GEOMETRIC_PRESENTATION_REPRESENTATION('',(#16),#489);
#11=GEOMETRICALLY_BOUNDED_WIREFRAME_SHAPE_REPRESENTATION('',(#12),#488);
#12=GEOMETRIC_CURVE_SET('Szkic5',(#485));
#13=SHAPE_REPRESENTATION_RELATIONSHIP('SRR','None',#496,#15);
#14=SHAPE_REPRESENTATION_RELATIONSHIP('SRR','None',#496,#11);
#15=ADVANCED_BREP_SHAPE_REPRESENTATION('',(#17),#488);
#16=STYLED_ITEM('',(#505),#17);
#17=MANIFOLD_SOLID_BREP('Bry\X2\0142\X0\a1',#257);
#18=FACE_BOUND('',#60,.T.);
#19=FACE_BOUND('',#62,.T.);
#20=PLANE('',#317);
#21=PLANE('',#318);
#22=TOROIDAL_SURFACE('',#305,12.,4.5);
#23=TOROIDAL_SURFACE('',#312,12.,4.5);
#24=CYLINDRICAL_SURFACE('',#282,1.5);
#25=CYLINDRICAL_SURFACE('',#286,1.5);
#26=CYLINDRICAL_SURFACE('',#293,7.5);
#27=CYLINDRICAL_SURFACE('',#300,7.5);
#28=CYLINDRICAL_SURFACE('',#302,4.5);
#29=CYLINDRICAL_SURFACE('',#309,4.5);
#30=CYLINDRICAL_SURFACE('',#316,4.5);
#31=FACE_OUTER_BOUND('',#46,.T.);
#32=FACE_OUTER_BOUND('',#47,.T.);
#33=FACE_OUTER_BOUND('',#48,.T.);
#34=FACE_OUTER_BOUND('',#49,.T.);
#35=FACE_OUTER_BOUND('',#50,.T.);
#36=FACE_OUTER_BOUND('',#51,.T.);
#37=FACE_OUTER_BOUND('',#52,.T.);
#38=FACE_OUTER_BOUND('',#53,.T.);
#39=FACE_OUTER_BOUND('',#54,.T.);
#40=FACE_OUTER_BOUND('',#55,.T.);
#41=FACE_OUTER_BOUND('',#56,.T.);
#42=FACE_OUTER_BOUND('',#57,.T.);
#43=FACE_OUTER_BOUND('',#58,.T.);
#44=FACE_OUTER_BOUND('',#59,.T.);
#45=FACE_OUTER_BOUND('',#61,.T.);
#46=EDGE_LOOP('',(#168,#169,#170));
#47=EDGE_LOOP('',(#171,#172,#173,#174));
#48=EDGE_LOOP('',(#175,#176,#177));
#49=EDGE_LOOP('',(#178,#179,#180,#181));
#50=EDGE_LOOP('',(#182,#183,#184,#185,#186,#187));
#51=EDGE_LOOP('',(#188,#189,#190,#191,#192));
#52=EDGE_LOOP('',(#193,#194,#195,#196,#197,#198));
#53=EDGE_LOOP('',(#199,#200,#201,#202,#203));
#54=EDGE_LOOP('',(#204,#205,#206,#207,#208,#209));
#55=EDGE_LOOP('',(#210,#211,#212,#213,#214,#215));
#56=EDGE_LOOP('',(#216,#217,#218,#219,#220,#221));
#57=EDGE_LOOP('',(#222,#223,#224,#225,#226,#227));
#58=EDGE_LOOP('',(#228,#229,#230,#231,#232,#233));
#59=EDGE_LOOP('',(#234));
#60=EDGE_LOOP('',(#235));
#61=EDGE_LOOP('',(#236));
#62=EDGE_LOOP('',(#237));
#63=LINE('',#415,#74);
#64=LINE('',#419,#75);
#65=LINE('',#424,#76);
#66=LINE('',#428,#77);
#67=LINE('',#434,#78);
#68=LINE('',#441,#79);
#69=LINE('',#448,#80);
#70=LINE('',#455,#81);
#71=LINE('',#459,#82);
#72=LINE('',#471,#83);
#73=LINE('',#482,#84);
#74=VECTOR('',#325,0.75);
#75=VECTOR('',#330,1.5);
#76=VECTOR('',#335,0.75);
#77=VECTOR('',#340,1.5);
#78=VECTOR('',#345,6.);
#79=VECTOR('',#354,7.5);
#80=VECTOR('',#361,6.);
#81=VECTOR('',#370,7.5);
#82=VECTOR('',#375,4.5);
#83=VECTOR('',#390,4.5);
#84=VECTOR('',#405,4.5);
#85=CIRCLE('',#281,1.5);
#86=CIRCLE('',#283,1.5);
#87=CIRCLE('',#285,1.5);
#88=CIRCLE('',#287,1.5);
#89=CIRCLE('',#289,4.5);
#90=CIRCLE('',#290,7.5);
#91=CIRCLE('',#291,7.5);
#92=CIRCLE('',#292,4.5);
#93=CIRCLE('',#294,7.5);
#94=CIRCLE('',#296,4.5);
#95=CIRCLE('',#297,7.5);
#96=CIRCLE('',#298,7.5);
#97=CIRCLE('',#299,4.5);
#98=CIRCLE('',#301,7.5);
#99=CIRCLE('',#303,4.5);
#100=CIRCLE('',#304,4.5);
#101=CIRCLE('',#306,7.5);
#102=CIRCLE('',#307,4.5);
#103=CIRCLE('',#308,4.5);
#104=CIRCLE('',#310,4.5);
#105=CIRCLE('',#311,4.5);
#106=CIRCLE('',#313,7.5);
#107=CIRCLE('',#314,4.5);
#108=CIRCLE('',#315,4.5);
#109=VERTEX_POINT('',#412);
#110=VERTEX_POINT('',#414);
#111=VERTEX_POINT('',#417);
#112=VERTEX_POINT('',#421);
#113=VERTEX_POINT('',#423);
#114=VERTEX_POINT('',#426);
#115=VERTEX_POINT('',#430);
#116=VERTEX_POINT('',#431);
#117=VERTEX_POINT('',#433);
#118=VERTEX_POINT('',#435);
#119=VERTEX_POINT('',#440);
#120=VERTEX_POINT('',#444);
#121=VERTEX_POINT('',#445);
#122=VERTEX_POINT('',#447);
#123=VERTEX_POINT('',#449);
#124=VERTEX_POINT('',#454);
#125=VERTEX_POINT('',#458);
#126=VERTEX_POINT('',#460);
#127=VERTEX_POINT('',#464);
#128=VERTEX_POINT('',#466);
#129=VERTEX_POINT('',#470);
#130=VERTEX_POINT('',#472);
#131=VERTEX_POINT('',#476);
#132=VERTEX_POINT('',#478);
#133=EDGE_CURVE('',#109,#109,#85,.T.);
#134=EDGE_CURVE('',#109,#110,#63,.T.);
#135=EDGE_CURVE('',#111,#111,#86,.T.);
#136=EDGE_CURVE('',#111,#109,#64,.T.);
#137=EDGE_CURVE('',#112,#112,#87,.T.);
#138=EDGE_CURVE('',#112,#113,#65,.T.);
#139=EDGE_CURVE('',#114,#114,#88,.T.);
#140=EDGE_CURVE('',#114,#112,#66,.T.);
#141=EDGE_CURVE('',#115,#116,#89,.T.);
#142=EDGE_CURVE('',#115,#117,#67,.T.);
#143=EDGE_CURVE('',#117,#118,#90,.T.);
#144=EDGE_CURVE('',#118,#117,#91,.T.);
#145=EDGE_CURVE('',#116,#115,#92,.T.);
#146=EDGE_CURVE('',#118,#119,#68,.T.);
#147=EDGE_CURVE('',#119,#119,#93,.T.);
#148=EDGE_CURVE('',#120,#121,#94,.T.);
#149=EDGE_CURVE('',#120,#122,#69,.T.);
#150=EDGE_CURVE('',#122,#123,#95,.T.);
#151=EDGE_CURVE('',#123,#122,#96,.T.);
#152=EDGE_CURVE('',#121,#120,#97,.T.);
#153=EDGE_CURVE('',#123,#124,#70,.T.);
#154=EDGE_CURVE('',#124,#124,#98,.T.);
#155=EDGE_CURVE('',#121,#125,#71,.T.);
#156=EDGE_CURVE('',#125,#126,#99,.T.);
#157=EDGE_CURVE('',#126,#125,#100,.T.);
#158=EDGE_CURVE('',#126,#127,#101,.T.);
#159=EDGE_CURVE('',#127,#128,#102,.T.);
#160=EDGE_CURVE('',#128,#127,#103,.T.);
#161=EDGE_CURVE('',#128,#129,#72,.T.);
#162=EDGE_CURVE('',#129,#130,#104,.T.);
#163=EDGE_CURVE('',#130,#129,#105,.T.);
#164=EDGE_CURVE('',#130,#131,#106,.T.);
#165=EDGE_CURVE('',#131,#132,#107,.T.);
#166=EDGE_CURVE('',#132,#131,#108,.T.);
#167=EDGE_CURVE('',#132,#116,#73,.T.);
#168=ORIENTED_EDGE('',*,*,#133,.T.);
#169=ORIENTED_EDGE('',*,*,#134,.T.);
#170=ORIENTED_EDGE('',*,*,#134,.F.);
#171=ORIENTED_EDGE('',*,*,#135,.F.);
#172=ORIENTED_EDGE('',*,*,#136,.T.);
#173=ORIENTED_EDGE('',*,*,#133,.F.);
#174=ORIENTED_EDGE('',*,*,#136,.F.);
#175=ORIENTED_EDGE('',*,*,#137,.T.);
#176=ORIENTED_EDGE('',*,*,#138,.T.);
#177=ORIENTED_EDGE('',*,*,#138,.F.);
#178=ORIENTED_EDGE('',*,*,#139,.F.);
#179=ORIENTED_EDGE('',*,*,#140,.T.);
#180=ORIENTED_EDGE('',*,*,#137,.F.);
#181=ORIENTED_EDGE('',*,*,#140,.F.);
#182=ORIENTED_EDGE('',*,*,#141,.F.);
#183=ORIENTED_EDGE('',*,*,#142,.T.);
#184=ORIENTED_EDGE('',*,*,#143,.T.);
#185=ORIENTED_EDGE('',*,*,#144,.T.);
#186=ORIENTED_EDGE('',*,*,#142,.F.);
#187=ORIENTED_EDGE('',*,*,#145,.F.);
#188=ORIENTED_EDGE('',*,*,#143,.F.);
#189=ORIENTED_EDGE('',*,*,#144,.F.);
#190=ORIENTED_EDGE('',*,*,#146,.T.);
#191=ORIENTED_EDGE('',*,*,#147,.T.);
#192=ORIENTED_EDGE('',*,*,#146,.F.);
#193=ORIENTED_EDGE('',*,*,#148,.F.);
#194=ORIENTED_EDGE('',*,*,#149,.T.);
#195=ORIENTED_EDGE('',*,*,#150,.T.);
#196=ORIENTED_EDGE('',*,*,#151,.T.);
#197=ORIENTED_EDGE('',*,*,#149,.F.);
#198=ORIENTED_EDGE('',*,*,#152,.F.);
#199=ORIENTED_EDGE('',*,*,#150,.F.);
#200=ORIENTED_EDGE('',*,*,#151,.F.);
#201=ORIENTED_EDGE('',*,*,#153,.T.);
#202=ORIENTED_EDGE('',*,*,#154,.T.);
#203=ORIENTED_EDGE('',*,*,#153,.F.);
#204=ORIENTED_EDGE('',*,*,#148,.T.);
#205=ORIENTED_EDGE('',*,*,#155,.T.);
#206=ORIENTED_EDGE('',*,*,#156,.T.);
#207=ORIENTED_EDGE('',*,*,#157,.T.);
#208=ORIENTED_EDGE('',*,*,#155,.F.);
#209=ORIENTED_EDGE('',*,*,#152,.T.);
#210=ORIENTED_EDGE('',*,*,#157,.F.);
#211=ORIENTED_EDGE('',*,*,#158,.T.);
#212=ORIENTED_EDGE('',*,*,#159,.T.);
#213=ORIENTED_EDGE('',*,*,#160,.T.);
#214=ORIENTED_EDGE('',*,*,#158,.F.);
#215=ORIENTED_EDGE('',*,*,#156,.F.);
#216=ORIENTED_EDGE('',*,*,#159,.F.);
#217=ORIENTED_EDGE('',*,*,#160,.F.);
#218=ORIENTED_EDGE('',*,*,#161,.T.);
#219=ORIENTED_EDGE('',*,*,#162,.T.);
#220=ORIENTED_EDGE('',*,*,#163,.T.);
#221=ORIENTED_EDGE('',*,*,#161,.F.);
#222=ORIENTED_EDGE('',*,*,#163,.F.);
#223=ORIENTED_EDGE('',*,*,#164,.T.);
#224=ORIENTED_EDGE('',*,*,#165,.T.);
#225=ORIENTED_EDGE('',*,*,#166,.T.);
#226=ORIENTED_EDGE('',*,*,#164,.F.);
#227=ORIENTED_EDGE('',*,*,#162,.F.);
#228=ORIENTED_EDGE('',*,*,#165,.F.);
#229=ORIENTED_EDGE('',*,*,#166,.F.);
#230=ORIENTED_EDGE('',*,*,#167,.T.);
#231=ORIENTED_EDGE('',*,*,#145,.T.);
#232=ORIENTED_EDGE('',*,*,#141,.T.);
#233=ORIENTED_EDGE('',*,*,#167,.F.);
#234=ORIENTED_EDGE('',*,*,#154,.F.);
#235=ORIENTED_EDGE('',*,*,#135,.T.);
#236=ORIENTED_EDGE('',*,*,#147,.F.);
#237=ORIENTED_EDGE('',*,*,#139,.T.);
#238=CONICAL_SURFACE('',#280,0.75,1.02974425867665);
#239=CONICAL_SURFACE('',#284,0.75,1.02974425867665);
#240=CONICAL_SURFACE('',#288,6.,0.982793723247329);
#241=CONICAL_SURFACE('',#295,6.,0.982793723247329);
#242=ADVANCED_FACE('',(#31),#238,.F.);
#243=ADVANCED_FACE('',(#32),#24,.F.);
#244=ADVANCED_FACE('',(#33),#239,.F.);
#245=ADVANCED_FACE('',(#34),#25,.F.);
#246=ADVANCED_FACE('',(#35),#240,.T.);
#247=ADVANCED_FACE('',(#36),#26,.T.);
#248=ADVANCED_FACE('',(#37),#241,.T.);
#249=ADVANCED_FACE('',(#38),#27,.T.);
#250=ADVANCED_FACE('',(#39),#28,.T.);
#251=ADVANCED_FACE('',(#40),#22,.T.);
#252=ADVANCED_FACE('',(#41),#29,.T.);
#253=ADVANCED_FACE('',(#42),#23,.T.);
#254=ADVANCED_FACE('',(#43),#30,.T.);
#255=ADVANCED_FACE('',(#44,#18),#20,.T.);
#256=ADVANCED_FACE('',(#45,#19),#21,.F.);
#257=CLOSED_SHELL('',(#242,#243,#244,#245,#246,#247,#248,#249,#250,#251,
#252,#253,#254,#255,#256));
#258=DERIVED_UNIT_ELEMENT(#261,1.);
#259=DERIVED_UNIT_ELEMENT(#491,-3.);
#260=DIMENSIONAL_EXPONENTS(0.,1.,0.,0.,0.,0.,0.);
#261=(
CONVERSION_BASED_UNIT('gram',#263)
MASS_UNIT()
NAMED_UNIT(#260)
);
#262=(
MASS_UNIT()
NAMED_UNIT(*)
SI_UNIT(.KILO.,.GRAM.)
);
#263=MASS_MEASURE_WITH_UNIT(MASS_MEASURE(0.001),#262);
#264=DERIVED_UNIT((#258,#259));
#265=MEASURE_REPRESENTATION_ITEM('density measure',
POSITIVE_RATIO_MEASURE(1.),#264);
#266=PROPERTY_DEFINITION_REPRESENTATION(#271,#268);
#267=PROPERTY_DEFINITION_REPRESENTATION(#272,#269);
#268=REPRESENTATION('material name',(#270),#488);
#269=REPRESENTATION('density',(#265),#488);
#270=DESCRIPTIVE_REPRESENTATION_ITEM('Generic','Generic');
#271=PROPERTY_DEFINITION('material property','material name',#498);
#272=PROPERTY_DEFINITION('material property','density of part',#498);
#273=DATE_TIME_ROLE('creation_date');
#274=APPLIED_DATE_AND_TIME_ASSIGNMENT(#275,#273,(#498));
#275=DATE_AND_TIME(#276,#277);
#276=CALENDAR_DATE(2020,10,2);
#277=LOCAL_TIME(0,0,0.,#278);
#278=COORDINATED_UNIVERSAL_TIME_OFFSET(0,0,.BEHIND.);
#279=AXIS2_PLACEMENT_3D('',#410,#319,#320);
#280=AXIS2_PLACEMENT_3D('',#411,#321,#322);
#281=AXIS2_PLACEMENT_3D('',#413,#323,#324);
#282=AXIS2_PLACEMENT_3D('',#416,#326,#327);
#283=AXIS2_PLACEMENT_3D('',#418,#328,#329);
#284=AXIS2_PLACEMENT_3D('',#420,#331,#332);
#285=AXIS2_PLACEMENT_3D('',#422,#333,#334);
#286=AXIS2_PLACEMENT_3D('',#425,#336,#337);
#287=AXIS2_PLACEMENT_3D('',#427,#338,#339);
#288=AXIS2_PLACEMENT_3D('',#429,#341,#342);
#289=AXIS2_PLACEMENT_3D('',#432,#343,#344);
#290=AXIS2_PLACEMENT_3D('',#436,#346,#347);
#291=AXIS2_PLACEMENT_3D('',#437,#348,#349);
#292=AXIS2_PLACEMENT_3D('',#438,#350,#351);
#293=AXIS2_PLACEMENT_3D('',#439,#352,#353);
#294=AXIS2_PLACEMENT_3D('',#442,#355,#356);
#295=AXIS2_PLACEMENT_3D('',#443,#357,#358);
#296=AXIS2_PLACEMENT_3D('',#446,#359,#360);
#297=AXIS2_PLACEMENT_3D('',#450,#362,#363);
#298=AXIS2_PLACEMENT_3D('',#451,#364,#365);
#299=AXIS2_PLACEMENT_3D('',#452,#366,#367);
#300=AXIS2_PLACEMENT_3D('',#453,#368,#369);
#301=AXIS2_PLACEMENT_3D('',#456,#371,#372);
#302=AXIS2_PLACEMENT_3D('',#457,#373,#374);
#303=AXIS2_PLACEMENT_3D('',#461,#376,#377);
#304=AXIS2_PLACEMENT_3D('',#462,#378,#379);
#305=AXIS2_PLACEMENT_3D('',#463,#380,#381);
#306=AXIS2_PLACEMENT_3D('',#465,#382,#383);
#307=AXIS2_PLACEMENT_3D('',#467,#384,#385);
#308=AXIS2_PLACEMENT_3D('',#468,#386,#387);
#309=AXIS2_PLACEMENT_3D('',#469,#388,#389);
#310=AXIS2_PLACEMENT_3D('',#473,#391,#392);
#311=AXIS2_PLACEMENT_3D('',#474,#393,#394);
#312=AXIS2_PLACEMENT_3D('',#475,#395,#396);
#313=AXIS2_PLACEMENT_3D('',#477,#397,#398);
#314=AXIS2_PLACEMENT_3D('',#479,#399,#400);
#315=AXIS2_PLACEMENT_3D('',#480,#401,#402);
#316=AXIS2_PLACEMENT_3D('',#481,#403,#404);
#317=AXIS2_PLACEMENT_3D('',#483,#406,#407);
#318=AXIS2_PLACEMENT_3D('',#484,#408,#409);
#319=DIRECTION('axis',(0.,0.,1.));
#320=DIRECTION('refdir',(1.,0.,0.));
#321=DIRECTION('center_axis',(0.,-1.,0.));
#322=DIRECTION('ref_axis',(1.,0.,0.));
#323=DIRECTION('center_axis',(0.,-1.,0.));
#324=DIRECTION('ref_axis',(1.,0.,0.));
#325=DIRECTION('',(0.857167300702112,0.515038074910054,1.04972719113862E-16));
#326=DIRECTION('center_axis',(0.,-1.,0.));
#327=DIRECTION('ref_axis',(1.,0.,0.));
#328=DIRECTION('center_axis',(0.,1.,1.22464679914735E-16));
#329=DIRECTION('ref_axis',(1.,0.,0.));
#330=DIRECTION('',(0.,1.,0.));
#331=DIRECTION('center_axis',(0.,-1.,0.));
#332=DIRECTION('ref_axis',(1.,0.,0.));
#333=DIRECTION('center_axis',(0.,-1.,0.));
#334=DIRECTION('ref_axis',(1.,0.,0.));
#335=DIRECTION('',(0.857167300702112,0.515038074910054,1.04972719113862E-16));
#336=DIRECTION('center_axis',(0.,-1.,0.));
#337=DIRECTION('ref_axis',(1.,0.,0.));
#338=DIRECTION('center_axis',(0.,1.,0.));
#339=DIRECTION('ref_axis',(1.,0.,0.));
#340=DIRECTION('',(0.,1.,0.));
#341=DIRECTION('center_axis',(0.,-1.,0.));
#342=DIRECTION('ref_axis',(1.,0.,0.));
#343=DIRECTION('center_axis',(0.,1.,0.));
#344=DIRECTION('ref_axis',(-1.,0.,0.));
#345=DIRECTION('',(-0.832050294337844,-0.554700196225229,1.01896772969045E-16));
#346=DIRECTION('center_axis',(0.,1.,0.));
#347=DIRECTION('ref_axis',(1.,0.,0.));
#348=DIRECTION('center_axis',(0.,1.,0.));
#349=DIRECTION('ref_axis',(1.,0.,0.));
#350=DIRECTION('center_axis',(0.,1.,0.));
#351=DIRECTION('ref_axis',(-1.,0.,0.));
#352=DIRECTION('center_axis',(0.,1.,0.));
#353=DIRECTION('ref_axis',(-1.,0.,0.));
#354=DIRECTION('',(0.,-1.,0.));
#355=DIRECTION('center_axis',(0.,1.,0.));
#356=DIRECTION('ref_axis',(-1.,0.,0.));
#357=DIRECTION('center_axis',(0.,-1.,0.));
#358=DIRECTION('ref_axis',(1.,0.,0.));
#359=DIRECTION('center_axis',(0.,1.,0.));
#360=DIRECTION('ref_axis',(-1.,0.,0.));
#361=DIRECTION('',(-0.832050294337844,-0.554700196225229,1.01896772969045E-16));
#362=DIRECTION('center_axis',(0.,1.,0.));
#363=DIRECTION('ref_axis',(1.,0.,0.));
#364=DIRECTION('center_axis',(0.,1.,0.));
#365=DIRECTION('ref_axis',(1.,0.,0.));
#366=DIRECTION('center_axis',(0.,1.,0.));
#367=DIRECTION('ref_axis',(-1.,0.,0.));
#368=DIRECTION('center_axis',(0.,1.,0.));
#369=DIRECTION('ref_axis',(-1.,0.,0.));
#370=DIRECTION('',(0.,-1.,0.));
#371=DIRECTION('center_axis',(0.,1.,0.));
#372=DIRECTION('ref_axis',(-1.,0.,0.));
#373=DIRECTION('center_axis',(0.,-1.,0.));
#374=DIRECTION('ref_axis',(-1.,0.,0.));
#375=DIRECTION('',(0.,1.,0.));
#376=DIRECTION('center_axis',(0.,-1.,-1.22464679914735E-16));
#377=DIRECTION('ref_axis',(-1.,0.,0.));
#378=DIRECTION('center_axis',(0.,-1.,-1.22464679914735E-16));
#379=DIRECTION('ref_axis',(-1.,0.,0.));
#380=DIRECTION('center_axis',(-1.,0.,0.));
#381=DIRECTION('ref_axis',(0.,0.,1.));
#382=DIRECTION('center_axis',(1.,0.,0.));
#383=DIRECTION('ref_axis',(0.,0.,1.));
#384=DIRECTION('center_axis',(0.,6.12323399573677E-17,-1.));
#385=DIRECTION('ref_axis',(-1.,0.,0.));
#386=DIRECTION('center_axis',(0.,6.12323399573677E-17,-1.));
#387=DIRECTION('ref_axis',(-1.,0.,0.));
#388=DIRECTION('center_axis',(0.,8.5401771125012E-17,-1.));
#389=DIRECTION('ref_axis',(-1.,0.,0.));
#390=DIRECTION('',(0.,-8.5401771125012E-17,1.));
#391=DIRECTION('center_axis',(0.,6.12323399573677E-17,-1.));
#392=DIRECTION('ref_axis',(-1.,0.,0.));
#393=DIRECTION('center_axis',(0.,6.12323399573677E-17,-1.));
#394=DIRECTION('ref_axis',(-1.,0.,0.));
#395=DIRECTION('center_axis',(-1.,0.,0.));
#396=DIRECTION('ref_axis',(0.,0.,1.));
#397=DIRECTION('center_axis',(1.,0.,0.));
#398=DIRECTION('ref_axis',(0.,0.,1.));
#399=DIRECTION('center_axis',(0.,1.,0.));
#400=DIRECTION('ref_axis',(-1.,0.,0.));
#401=DIRECTION('center_axis',(0.,1.,0.));
#402=DIRECTION('ref_axis',(-1.,0.,0.));
#403=DIRECTION('center_axis',(0.,1.,0.));
#404=DIRECTION('ref_axis',(-1.,0.,0.));
#405=DIRECTION('',(0.,-1.,0.));
#406=DIRECTION('center_axis',(0.,-1.,-1.22464679914735E-16));
#407=DIRECTION('ref_axis',(0.,1.22464679914735E-16,-1.));
#408=DIRECTION('center_axis',(0.,1.,0.));
#409=DIRECTION('ref_axis',(0.,0.,1.));
#410=CARTESIAN_POINT('',(0.,0.,0.));
#411=CARTESIAN_POINT('Origin',(0.,9.45064546427067,-128.));
#412=CARTESIAN_POINT('',(-1.50000000000001,9.,-128.));
#413=CARTESIAN_POINT('Origin',(0.,9.,-128.));
#414=CARTESIAN_POINT('',(0.,9.90129092854134,-128.));
#415=CARTESIAN_POINT('',(-0.75,9.45064546427067,-128.));
#416=CARTESIAN_POINT('Origin',(0.,4.5,-128.));
#417=CARTESIAN_POINT('',(-1.5,8.88178419700125E-15,-128.));
#418=CARTESIAN_POINT('Origin',(0.,8.88178419700125E-15,-128.));
#419=CARTESIAN_POINT('',(-1.5,4.5,-128.));
#420=CARTESIAN_POINT('Origin',(0.,9.45064546427067,0.));
#421=CARTESIAN_POINT('',(-1.5,9.,-1.83697019872103E-16));
#422=CARTESIAN_POINT('Origin',(0.,9.,0.));
#423=CARTESIAN_POINT('',(0.,9.90129092854134,0.));
#424=CARTESIAN_POINT('',(-0.75,9.45064546427067,-9.18485099360515E-17));
#425=CARTESIAN_POINT('Origin',(0.,4.5,0.));
#426=CARTESIAN_POINT('',(-1.5,0.,-1.83697019872103E-16));
#427=CARTESIAN_POINT('Origin',(0.,0.,0.));
#428=CARTESIAN_POINT('',(-1.5,4.5,-1.83697019872103E-16));
#429=CARTESIAN_POINT('Origin',(0.,3.,0.));
#430=CARTESIAN_POINT('',(-4.5,4.,5.51091059616309E-16));
#431=CARTESIAN_POINT('',(4.5,4.,-5.51091059616309E-16));
#432=CARTESIAN_POINT('Origin',(0.,4.,0.));
#433=CARTESIAN_POINT('',(-7.5,2.,9.18485099360515E-16));
#434=CARTESIAN_POINT('',(-6.,3.,7.34788079488412E-16));
#435=CARTESIAN_POINT('',(7.5,2.,-9.18485099360515E-16));
#436=CARTESIAN_POINT('Origin',(0.,2.,0.));
#437=CARTESIAN_POINT('Origin',(0.,2.,0.));
#438=CARTESIAN_POINT('Origin',(0.,4.,0.));
#439=CARTESIAN_POINT('Origin',(0.,0.,0.));
#440=CARTESIAN_POINT('',(7.5,0.,-9.18485099360515E-16));
#441=CARTESIAN_POINT('',(7.5,0.,-9.18485099360515E-16));
#442=CARTESIAN_POINT('Origin',(0.,0.,0.));
#443=CARTESIAN_POINT('Origin',(0.,3.,-128.));
#444=CARTESIAN_POINT('',(-4.50000000000001,4.,-128.));
#445=CARTESIAN_POINT('',(4.5,4.,-128.));
#446=CARTESIAN_POINT('Origin',(0.,4.,-128.));
#447=CARTESIAN_POINT('',(-7.5,2.,-128.));
#448=CARTESIAN_POINT('',(-6.,3.,-128.));
#449=CARTESIAN_POINT('',(7.5,2.,-128.));
#450=CARTESIAN_POINT('Origin',(0.,2.,-128.));
#451=CARTESIAN_POINT('Origin',(0.,2.,-128.));
#452=CARTESIAN_POINT('Origin',(0.,4.,-128.));
#453=CARTESIAN_POINT('Origin',(0.,0.,-128.));
#454=CARTESIAN_POINT('',(7.5,0.,-128.));
#455=CARTESIAN_POINT('',(7.5,0.,-128.));
#456=CARTESIAN_POINT('Origin',(0.,0.,-128.));
#457=CARTESIAN_POINT('Origin',(0.,13.5,-128.));
#458=CARTESIAN_POINT('',(4.5,13.5,-128.));
#459=CARTESIAN_POINT('',(4.5,13.5,-128.));
#460=CARTESIAN_POINT('',(5.51091059616309E-16,13.5,-123.5));
#461=CARTESIAN_POINT('Origin',(0.,13.5,-128.));
#462=CARTESIAN_POINT('Origin',(0.,13.5,-128.));
#463=CARTESIAN_POINT('Origin',(0.,13.5,-116.));
#464=CARTESIAN_POINT('',(5.51091059616309E-16,21.,-116.));
#465=CARTESIAN_POINT('Origin',(5.51091059616309E-16,13.5,-116.));
#466=CARTESIAN_POINT('',(4.5,25.5,-116.));
#467=CARTESIAN_POINT('Origin',(0.,25.5,-116.));
#468=CARTESIAN_POINT('Origin',(0.,25.5,-116.));
#469=CARTESIAN_POINT('Origin',(0.,25.5,-12.));
#470=CARTESIAN_POINT('',(4.5,25.5,-12.));
#471=CARTESIAN_POINT('',(4.5,25.5,-12.));
#472=CARTESIAN_POINT('',(5.51091059616309E-16,21.,-12.));
#473=CARTESIAN_POINT('Origin',(0.,25.5,-12.));
#474=CARTESIAN_POINT('Origin',(0.,25.5,-12.));
#475=CARTESIAN_POINT('Origin',(0.,13.5,-12.));
#476=CARTESIAN_POINT('',(5.51091059616309E-16,13.5,-4.5));
#477=CARTESIAN_POINT('Origin',(5.51091059616309E-16,13.5,-12.));
#478=CARTESIAN_POINT('',(4.5,13.5,-5.51091059616309E-16));
#479=CARTESIAN_POINT('Origin',(0.,13.5,0.));
#480=CARTESIAN_POINT('Origin',(0.,13.5,0.));
#481=CARTESIAN_POINT('Origin',(0.,0.,0.));
#482=CARTESIAN_POINT('',(4.5,0.,-5.51091059616309E-16));
#483=CARTESIAN_POINT('Origin',(0.,8.88178419700125E-15,-128.));
#484=CARTESIAN_POINT('Origin',(0.,0.,0.));
#485=CARTESIAN_POINT('',(0.,0.,0.));
#486=UNCERTAINTY_MEASURE_WITH_UNIT(LENGTH_MEASURE(0.01),#490,
'DISTANCE_ACCURACY_VALUE',
'Maximum model space distance between geometric entities at asserted c
onnectivities');
#487=UNCERTAINTY_MEASURE_WITH_UNIT(LENGTH_MEASURE(0.01),#490,
'DISTANCE_ACCURACY_VALUE',
'Maximum model space distance between geometric entities at asserted c
onnectivities');
#488=(
GEOMETRIC_REPRESENTATION_CONTEXT(3)
GLOBAL_UNCERTAINTY_ASSIGNED_CONTEXT((#486))
GLOBAL_UNIT_ASSIGNED_CONTEXT((#490,#492,#493))
REPRESENTATION_CONTEXT('','3D')
);
#489=(
GEOMETRIC_REPRESENTATION_CONTEXT(3)
GLOBAL_UNCERTAINTY_ASSIGNED_CONTEXT((#487))
GLOBAL_UNIT_ASSIGNED_CONTEXT((#490,#492,#493))
REPRESENTATION_CONTEXT('','3D')
);
#490=(
LENGTH_UNIT()
NAMED_UNIT(*)
SI_UNIT(.MILLI.,.METRE.)
);
#491=(
LENGTH_UNIT()
NAMED_UNIT(*)
SI_UNIT(.CENTI.,.METRE.)
);
#492=(
NAMED_UNIT(*)
PLANE_ANGLE_UNIT()
SI_UNIT($,.RADIAN.)
);
#493=(
NAMED_UNIT(*)
SI_UNIT($,.STERADIAN.)
SOLID_ANGLE_UNIT()
);
#494=SHAPE_DEFINITION_REPRESENTATION(#495,#496);
#495=PRODUCT_DEFINITION_SHAPE('',$,#498);
#496=SHAPE_REPRESENTATION('',(#279),#488);
#497=PRODUCT_DEFINITION_CONTEXT('part definition',#502,'design');
#498=PRODUCT_DEFINITION('UZ-NORD-...-01','UZ-NORD-...',#499,#497);
#499=PRODUCT_DEFINITION_FORMATION('',$,#504);
#500=PRODUCT_RELATED_PRODUCT_CATEGORY('UZ-NORD-...','UZ-NORD-...',(#504));
#501=APPLICATION_PROTOCOL_DEFINITION('international standard',
'automotive_design',2009,#502);
#502=APPLICATION_CONTEXT(
'Core Data for Automotive Mechanical Design Process');
#503=PRODUCT_CONTEXT('part definition',#502,'mechanical');
#504=PRODUCT('UZ-NORD-...-01','UZ-NORD-...',$,(#503));
#505=PRESENTATION_STYLE_ASSIGNMENT((#507));
#506=PRESENTATION_STYLE_ASSIGNMENT((#508));
#507=SURFACE_STYLE_USAGE(.BOTH.,#511);
#508=SURFACE_STYLE_USAGE(.BOTH.,#512);
#509=SURFACE_STYLE_RENDERING_WITH_PROPERTIES($,#519,(#510));
#510=SURFACE_STYLE_TRANSPARENT(0.);
#511=SURFACE_SIDE_STYLE('',(#513,#509));
#512=SURFACE_SIDE_STYLE('',(#514));
#513=SURFACE_STYLE_FILL_AREA(#515);
#514=SURFACE_STYLE_FILL_AREA(#516);
#515=FILL_AREA_STYLE('',(#517));
#516=FILL_AREA_STYLE('',(#518));
#517=FILL_AREA_STYLE_COLOUR('',#519);
#518=FILL_AREA_STYLE_COLOUR('',#520);
#519=COLOUR_RGB('',0.0196078431372549,0.0196078431372549,0.0196078431372549);
#520=COLOUR_RGB('',1.,1.,0.);
ENDSEC;
END-ISO-10303-21;
